Green Gloves Tab

More The National Tabs

Artist: The National
 Album: Boxer
  Song: Green Gloves

Tabbed by: tonyadams

Capo 2

[intro]
-------------------------------------------------------------------
-------------------------------------------------------------------
--------0----------0-----------0------------0------------0---------
-----2----2-----2----2-----0-----0-----0------0-----2-----2------2-
--------------3--------------------------------------------------3-
--1----------------------3-----------0-------------1---------------

-----------------------------------
-----------------------------------
---0-----------0-------------0-----
---2-----0------0------0-----0-----
-----------------------------------
---------3-------------3-----------


octaves(use slides - get timing from song)

-----------------------------------------
-----------------------------------------
-----16----14----9----11--------16----14-
-----------x-----x----x---------x-----x--
-----14----12----7----9---------14----12-
-----------------------------------------

------------------------------------------------
------------------------------------------------
-----12----11----9-----7----------12---11----9--
-----x-----x-----x-----x----------x-----x----x--
-----10----9-----7-----5----------10----9----7--
------------------------------------------------

Chorus

just strum or pick out notes from these chords:

C Em G Am

Falling out of touch with all my
friends are somewhere getting wasted,
hope theyíre staying glued together,
I have arms for them.

Take another sip of them,
it floats around and takes me over
like a little drop of ink in a glass of water

Get inside their clothes
with my green gloves
watch their videos, in their chairs.
Get inside their beds
with my green gloves
Get inside their heads, love their loves.

Cinderella through the room
I glide and swan cause Iím the best slow dancer
in the universe

Falling out of touch with all my
friends are somewhere getting wasted,
hope theyíre staying glued together,
I have arms for them.

Get inside their clothes
with my green gloves
watch their videos, in their chairs.
Get inside their beds
with my green gloves
Get inside their heads, love their loves.

Now I hardly know them
and Iíll take my time
Iíll carry them over, and Iíll make them mine.

Get inside their clothes
with my green gloves
watch their videos, in their chairs.
Get inside their beds
with my green gloves
Get inside their heads, love their loves.
#----------------------------PLEASE NOTE-----------------------------#
# This represents the author's own work and interpretation of the    #
# song. To be used only for private study, scholarship, or research. #
#--------------------------------------------------------------------#

blog comments powered by Disqus