#----------------------------PLEASE NOTE-----------------------------#
# This represents the author's own work and interpretation of the    #
# song. To be used only for private study, scholarship, or research. #
#--------------------------------------------------------------------#

Artist: Motorama
 Album: Alps
  Song: Alps

[http://www.indieguitartabs.com/bands/motorama/alps.html]

Tabbed by: anton hallmann

ALPS

intro

guitar 1:
|---------------------------------------------------|
|--9-77-9-77-9-77-12121212--9-77-9-77-9-77-12121212-|
|---------------------------------------------------|
|---------------------------------------------------|
|---------------------------------------------------|
|---------------------------------------------------|

|---------------------------------------------------|
|--9-7--------9-7-------9-7-------9-7---------------|
|------8-999------8-999-----8-999-----8-999---------|
|---------------------------------------------------|
|---------------------------------------------------|
|---------------------------------------------------|

guitar 2 chords: E A (barre)
verse

guitar 1:
|--------------------------------------------|
|-------999----------------999---------------|
|---8-9-------8-9999---8-9-----99-8----------|
|-9---------9--------9-----------------------|
|--------------------------------------------|
|--------------------------------------------|

like a 
white snow covered all my head

i am slow slow slow slow slowly dying
my blue colored eyes shine almost sleep like


chorus 

guitar 1:
|-------------------------------------------|
|-1414-1212-7h9-4h5--1414-1212-7h9-77-------|
|-------------------------------------------|
|-------------------------------------------|
|-------------------------------------------| 
|-------------------------------------------|

and i see
huge walls have trees
huge walls have
it takes my breath away 

if everyones falling on knees
i will love to die for this beauty

guitar 1:
|-------77----------77---------77----------77-----|
|-77-99----99-77-99---99-77-99----99-77-99----99--|
|-------------------------------------------------|
|-------------------------------------------------|
|-------------------------------------------------| 2x
|-------------------------------------------------|


verse

guitar 1:
|---------------------------------------------|
|---------------------------------------------|
|---------------------------------------------|
|----66-99----------99-----66-99-------999-6--|
|-77-------11-11-77-----77-------11-11--------|
|---------------------------------------------|

she touched me..
my heart was beating too fast

she walked close to me
my heart was beating too fast

how it feels


chorus

cold arms on me
hot blood in my chest
trying everything 
i can

intro/outro