Northern Seaside Tab

More Motorama Tabs

Artist: Motorama
 Album: Alps
  Song: Northern Seaside

Tabbed by: anton hallmann

NORHTERN SEASIDE

intro

guitar 1:
|------7----------------------------------------------|
|-----------------------------------------------------|
|---9-----9-9-9---9--9---9---9---9---9---9---9---9----|
|-9-------9-9-9--------9---9---9---9---9---9---9---9~-|
|-----------------------------------------------------|
|-----------------------------------------------------|

guitar 2:
|------------------------------------------12---------|
|---------------------------------------12------------|
|-----------------------------------------------------|
|------------------------------------14---------------|
|-----------------------------------------------------|
|-----------------------------------------------------|

guitar 1:
|------------------------------------------|
|------------------------------------------|
|-9---9---9---9---9---9---9---9---9---9----|
|---9---9---9---9---9---9---9---9---9---9--|
|------------------------------------------|
|------------------------------------------|

guitar 2:
|----------------------12------------------|
|-------------------12---------------------|
|------------------------------------------|
|----------------14------------------------|
|------------------------------------------|
|------------------------------------------|

drums in
guitar 1:
|------------------------------------------||
|------------------------------------------||
|-9---9---9---9---9---9---9---9---9---9----||
|---9---9---9---9---9---9---9---9---9---9--||
|------------------------------------------||
|------------------------------------------||
						   || 
guitar 2:					   || 4x 
|------------------------------------------||
|------------------------------------------||
|------999999999999999999999999999998~-----||
|------------------------------------------||
|------------------------------------------||
|------------------------------------------||


verse


guitar 1:
|--------------------------------------------|
|--------------------------------------------|
|--------------------------------------------|
|-----6-66-----777-6-----6-66----------------|
|-777------777-------777------999-8-7--------|
|--------------------------------------------|

i am alone, throwing stones to the dark
thousand lights on a ship stern glow
following my eyes

guitar 1:
|--------------------------------------------|
|--------------------------------------------|
|--------------------------------------------|
|-----6-66-----777-6-----6-66----------------|
|-777------777-------777------999-7-6--------|
|--------------------------------------------|

guitar 2:
|--------------------------------------------|
|-----7777-----7777-----777------------------|
|-999------999------999-----9-999-8----------|
|--------------------------------------------|
|--------------------------------------------|
|--------------------------------------------|

|--------------------------------------------|
|-----7777-----10101010-9-----777------------|
|-999------999------------999-----9-999-8----|
|--------------------------------------------|
|--------------------------------------------|
|--------------------------------------------|

before the dawn, all of us gone to their homes
before the dawn, i will be far from this place


bridge

guitar 1:
|-7--------------7---------------------------|
|---7---7---7-9----7---7---7-9---------------|
|-----9---9----------9---9-------------------|
|-------------------------------etc.---------| 2x then gui 2 comes in
|--------------------------------------------|
|--------------------------------------------|

guitar 2:
|-7-----------7------------------------------|
|---77-9-7-5----77-9-7-5---------------------|
|--------------------------------------------|
|--------------------------------------------|
|--------------------------------------------|
|--------------------------------------------|

then

guitar 2:
|----------------------------------------------|
|-7h99999999-7h99999999-7h99999999-7h99999999--|
|----------------------------------------------|
|----------------------------------------------|
|----------------------------------------------|
|----------------------------------------------|

|----------------------------------------------|
|-7h99-77--------------------------------------|
|---------99-----------------------------------| all twice
|----------------------------------------------|
|----------------------------------------------|
|----------------------------------------------|

then
guitar 1:
|-------------------------------------------------|
|-------------------------------------------------|
|-------------------------------------------------|
|-----6-----6-9-----6-----6-9-----6-----6-9-------|
|-7-9---7-9-----7-9---7-9-----7-9---7-9-----------|
|-------------------------------------------------|

guitar 2:
|-9----9------9----9------9----9------9----9------|
|---12---12-9---12---12-9---12---12-9---12---12-9-|
|-------------------------------------------------|
|-------------------------------------------------|
|-------------------------------------------------|
|-------------------------------------------------|

verse 

i am alone watching birds flying above
with an empty map, with no thoughts in my head
i was watching them flying above
before the dawn, seasons are changing too fast
before the dawn, i will be far from this place

bridge/outro


#----------------------------PLEASE NOTE-----------------------------#
# This represents the author's own work and interpretation of the    #
# song. To be used only for private study, scholarship, or research. #
#--------------------------------------------------------------------#

blog comments powered by Disqus