Another One Goes By Tab

More Mazarin Tabs

Artist: Mazarin
 Album: We're Already There
  Song: Another One Goes By

Tabbed by: witmachine@yahoo.com

intro:
Eb  Gm  Fm  Bb
Eb  Gm  Fm  Bb


Eb
kissing your skin
	 Gm		  Fm	     Bb
your skeleton splinters my daydreams
Eb			Gm	       Fm	B  Bb
under this other street everything sings
Eb
shadows slide across the wall
Gm
i walk outside and
		  Fm			B  Bb
i try to see you right in front of me
Eb				Gm
a silhouette is something sweet
		Fm	Bb
it's so bright


Bb
i don't know what to offer you
Dm		    Cm		F
i'm only broke and lonely
Bb		     Dm
and another one goes
		  Cm	Cm  F
and another one goes by

Bb
sometimes when i step outside
Dm			  Cm		Cm  F
i see you standing right in front of me
Bb		     Dm
and another one goes
Dm		Cm	F
and another one goes by


[solo]

    1 + 2 + 3 + 4 + 1 + 2 + 3 + 4 + 1 + 2 + 3 + 4 + 1 + 2 + 3 + 4 +
    Eb          Eb  Gm	        Gm  Fm	        Fm  Bb    Bb    Bb
e-------------------------------------------------------------------|
B-------------------------------------------------------------------|
G-----------------------------3---1---1-1-//5-3-1-------------------|
D---1---1-1-3-5---5---5-5-5/6---------------------5---3---3-6--5--3-|
A-------------------------------------------------------------------|
E-------------------------------------------------------------------|

    Eb          Eb  Gm	        Gm  Fm	        Fm    B  B   Bb Bb
e----------------------------------------------------------------------|
B-----------------------------------------------------6-6-6--9---9---9-|
G-------------------3-----3-5b7---7---5-5-5-5--8--8---7-7-7-10--10--10-|
D-----1-1-1-3-/5--5----5-----------------------------------------------|
A----------------------------------------------------------------------|
E----------------------------------------------------------------------|

    Eb                Eb    Gm	         
e----------------13---10---------------10--
b---11--13--11------------13--11--13-------
G-12--12--12--12----12--12--12--12---12----
D------------------------------------------
A------------------------------------------
E------------------------------------------

   Gm    Fm	              Fm    B  B       Bb Bb
-----------10------13---10---------------------------|
---11--13------11-------------13--11--11--11--9---9--|
-12--12--12--12--12---12---12-----12--12--12--10--10-|
-----------------------------------------------------|
-----------------------------------------------------|
-----------------------------------------------------|

      Eb                Eb    Gm	          
e-------------------13--10-----------------10-
B------11---13--11-----------13--13---13------
G-10/12---12--12--12--12---12--12---12--12----
D---------------------------------------------
A---------------------------------------------
E---------------------------------------------

  Gm    Fm	          Fm      Bb
---------------------------------------------------|
--11--13--13--13--11--11---11-11--10--9-----9--9---|
12--12--12--12--12--12-----12-12--11--10---10-10---|
---------------------------------------------------|
---------------------------------------------------|
---------------------------------------------------|

Bb
i don't know what to offer you
Dm		    Cm		F
i'm only broke and lonely
Bb		     Dm
and another one goes
		  Cm	Cm  F
and another one goes by


Bb
sometimes when i walk outside
Dm			  	   Cm	    Cm	F
i see it right in front of me it's so bright
Bb		     Dm
and another one goes
		  Cm		  Cm	 F
and another one goes and another goes by


      Eb                Eb    Gm	          
e-------------------13---10-----------------10
B------11---13--11------------13---11--13-----
G-10/12---12--12--12---12--12----12--12---12--
D---------------------------------------------
A---------------------------------------------
E---------------------------------------------

  Gm    Fm	          Fm       Bb
----------10--13--10---------------------------------|
--11--13--------------13--11--11--13---11----9---9---|
12--12--12--12--12--12--12--12--12---12--12---10--10-|
-----------------------------------------------------|
-----------------------------------------------------|
-----------------------------------------------------|


[fade out]

      Eb                  Eb    Gm	            
e---------------------13---10----------------10-
B------11---13---11-------------13--11--13-11---
G-10/12---12---12--12----12--12---12--12--------
D-----------------------------------------------
A-----------------------------------------------
E-----------------------------------------------

  Gm      Fm	          Fm   Bb        Bb        Bb
--------------------------------------------------------|
--13---11---9---9---9---9---9------11---11---11---9--9--|
12---12--12---10-10---10-10---10/12---12--12----10-10---|
--------------------------------------------------------|
--------------------------------------------------------|
--------------------------------------------------------|


#----------------------------PLEASE NOTE-----------------------------#
# This represents the author's own work and interpretation of the    #
# song. To be used only for private study, scholarship, or research. #
#--------------------------------------------------------------------#

blog comments powered by Disqus