#----------------------------PLEASE NOTE-----------------------------#
# This represents the author's own work and interpretation of the    #
# song. To be used only for private study, scholarship, or research. #
#--------------------------------------------------------------------#

Artist: Luke Temple
  Song: Lucky Part

[http://www.indieguitartabs.com/bands/luke_temple/lucky_part.html]

Tabbed by: Antoine Poliquin-B. (polisson2@hotmail.com)

I first heard this song from a Daytrotter Sessions and it ranks among my favourites. 

You can hear it on this fantastic site : 
http://www.daytrotter.com/article/952/free-songs-luke-temple

or on some youtube videos :
(http://www.youtube.com/watch?v=1DmA-OQ4HPE)

I still need some help with the lyrics as english is not my first language. 
Any corrections/mistakes : polisson2@hotmail.com

Tuning : D - A - D - F# - A - D

INTRO + VERSES
                  D                F#              G |----------------|----------------|---------------|----------------|----------------|
|----------------|----------------|---------------|----------------|----------------|
|------------0h1-|3-----0---------|0-----------0h1|3-----0-----4---|5---------------|
|----------------|--------2---0---|---------------|--------2-------|------------5h7-|
|------------0---|----0-------0---|----0-------0--|----0-----------|----5-------5---|
|----------------|0-------0-------|0-------0------|0-------0---4---|5-------5-------|
 
 Gm               D                A               D    	|----------------|----------------|---------------|----------------|		 |----------------|----------------|---------------|----------------|		 |----------------|0h1-3-----------|---------------|----------------|		 |8-------7---5---|----------------|---------------|0---------------|		 |----5-------5---|----0-------0---|7h9-10--9--7---|----0-----------|		 |5-------5-------|0-------0-------|7---7---7--7---|0-------0-------|


INSTRUMENTAL PART :
                                                            * |----------------|----------------|----------------|--------7-------|
|8h9-8h9---------|2--45-4-2p0-----|8h9-8h9---------|--------7-------|
|----------------|----------------|--------------0-|2-3-1-3-7-------|
|----------------|------------2p0-|----------------|--------7-------|
|----0-------0---|----0-------0---|----0-------0---|--------7-------|
|0-------0-------|0-------0-------|0-------0-------|2---1---7-------|

                                               *    * 
|----------------|----------------|------------7---|5---------------|
|8h9-8h9---------|2--45-4-2p0-----|8h9-8h9-----7---|5---------------|
|----------------|----------------|------------7---|5---------------|
|----------------|------------2p0-|------------7---|5---------------|
|----0-------0---|----0-------0---|----0-------7---|5---------------|
|0-------0-------|0-------0-------|0-------0---7---|5---------------|

(* = harmonics)

BRIDGE :
 Bm               C#7              A7               
|----------------|----------------|----------------|----------------|
|----------------|----------------|----------------|----------------|
|8---8---8---8---|7---7---7---7---|7---7---7---7---|7---7---7---7---|
|9---9---9---9---|9---9---9---9---|5---5---5---5---|5---5---5---5---|
|9---9---9---9---|8---8---8---8---|7---7---7---7---|0---0---0---0---|
|----------------|----------------|----------------|----------------|

|----------------|----------------|----------------|----------------|
|----------------|----------------|----------------|----------------|
|8---8---8---8---|7---7---7---7---|7---7---7---7---|--7---7---7--0h1|
|9---9---9---9---|9---9---9---9---|5---5---5---5---|--5---5---5-----|
|9---9---9---9---|8---8---8---8---|7---7---7---7-0-|0------------0--|
|----------------|----------------|----------------|----5---4----0--|

Let ring all strings whenever possible for the next part.

 D                                            F#   G
|----------------|---------------|----------------|----------------|
|----------------|--------0------|----------------|----------------|
|3-----5p0-------|0-------0---0h1|3-------8---7---|5-------5---5h7-|
|0---------2p0---|--------0---0--|0-------0---0---|5-------5---5---|
|--------------2-|------------0--|----------------|----------------|
|0---0---0---0---|0---0---0------|0---0---0---0---|5---5---5---5---|
 
 Gm               D                A               D
|----------------|----------------|---------------|----------------|
|----------------|----------------|---------------|----------------|
|8-------5---5---|0h1-p3-0--------|7---7---7--7-7-|0---0---0---0h1-|
|8-------7---5---|0-------2p0-----|7---7---7----7-|0---0---0---0---|
|----------------|------------2p0-|7---7h9-10-9-7-|0---0---0---0---|
|5---5---5---5---|0---0---0---0---|7---7---7--7-7-|0---0---0---0---|

VERSE 1 :
When they all parade, it's true,
They will find a four-leaf clover
Where your blood (??)  rushing through
That's the lucky part of you

VERSE 2 :
There's a hand that lays in mine
And it's part of something beautiful
If it rests itself upon my knee
Well that's the lucky part of me

(Instrumental)

BRIDGE :
And you can see the sun beyond
And I can see the cloud
Your breath will slip without a sound
While your body kisses the ground

VERSE 3 :
It may rain until you're gone
Where you're going is quite(??) beautiful
It's the smallest part that carries through
That's the lucky part of you

VERSE 4 :
All I have when you're gone
Is a perfect (??) in memory
Where it sits inside so brilliantly
That's the lucky part of me

Ou ou ou ou...