#----------------------------PLEASE NOTE-----------------------------#
# This represents the author's own work and interpretation of the    #
# song. To be used only for private study, scholarship, or research. #
#--------------------------------------------------------------------#

Artist: Love Battery
 Album: Straight Freak Ticket
  Song: Nehru Jacket

[http://www.indieguitartabs.com/bands/love_battery/nehru_jacket.html]

Intro and Verse

e  -------0-------------------------
B  -----3---3---3------2------3-----
G  -----------1------2------0---0---
D  --2-------------2----------------
A  --2-------------0-----2----------
E  --0-------------------3----------

     E7            A     G

Chorus   D    A    G     E
         

Verse again (silent)

Chorus

Verse loud    E7       A    G

you can use strumming the verse chords, but they also use a driven guitar that first part. listen to the song and you'll see.

Chorus

Verse loud: " Maybe it's a lead that brought us here....

Solo( first tab so listen to the song to understand my tabbing ) :)

-------------------------------9-----------------------------------------
---------9-10-12-10-9-10--9-10----10-9-10-9----------7h9^---7h9p7--------
---9~--9-------------------------------------7-9-9-9------9~-------7-9---
-------------------------------------------------------------------------
-------------------------------------------------------------------------
-------------------------------------------------------------------------


-------------10-15--------------
-12h15-15-12--------12h15-15-12-
--------------------------------
--------------------------------
--------------------------------
--------------------------------

Strumming  the chorus chords :
D       A       G        E

Chorus

 E


Hope you enjoyed playing it. May not be 100% correct, but still that solo is really enjoyable.