#----------------------------PLEASE NOTE-----------------------------#
# This represents the author's own work and interpretation of the    #
# song. To be used only for private study, scholarship, or research. #
#--------------------------------------------------------------------#

Artist: The Little Ones
 Album: Sing Song EP
  Song: Heavy Hearts Brigade

[http://www.indieguitartabs.com/bands/little_ones/06_heavy_hearts_brigade.html]

Tabbed by: justin@indieguitartabs.com

  
  intro riff
e|----------------------------------------10-|
B|----10-12-----10-12-----10-12-----10-12----|
G|-12--------12--------12--------12---------:|
D|------------------------------------------:|
A|-------------------------------------------|
E|-------------------------------------------|

  riff A
   G  Am  C      Bm Bm     Am Am  G  G       Am Am G
e|-----------------------|----------------------------|
B|----10--13-----12-12---|-10-10-------------10-10----|
G|-12-------------------:|--------12-12---12-------12-|
D|----------------------:|----------------------------|
A|-----------------------|----------------------------|
E|-----------------------|----------------------------|

  riff B
e|------------------------|
B|-12--------12--12-10----|
G|----9--8-------------12-|
D|------------------------|
A|------------------------|
E|------------------------|

G
Pedal fast and make your mother proud
Face the world and go shout out loud
Those fancy feats don't fear the boy in boots that carry your name

G
All the lords are positioned, child
The needle poses in their fine attire
Sitting lovely right above you as they offer their grace

(riff A)
G     Am  C    Bm     Bm
Don't you know you're late?
G Am C      Bm  Bm
O-ur sticks are raised
G   Am C  Bm Bm   Am Am    G     G    G  Am  Am  G
And we don't need to stand right next to the spotlight

G
They believe in the reasoning
Life exists and the courts are green
Once you join us all our hopes are here gathered today

G
Steady feet for the new parade
Rank and file heavy hearts brigade
At this movement we are moving ourselves into place

[chorus]
   D          Bm            Em     C    (riff B)
We pledge our hearts to the new brigade
    C         Am        D          G
And align our minds in every which way
   D          Bm            Em     C    (riff B)
We swear our lives to the bold and free
    C         Am        D          G
These are the words to our living decree

[riff A]

(repeat chorus twice)