#----------------------------PLEASE NOTE-----------------------------#
# This represents the author's own work and interpretation of the    #
# song. To be used only for private study, scholarship, or research. #
#--------------------------------------------------------------------#

Artist: Limbeck
 Album: Hi, Everything's Great
  Song: In Ohio on Some Steps

[http://www.indieguitartabs.com/bands/limbeck/in_ohio_on_some_steps.html]

Tabbed by: Scott Cairns (scott_in_herre@hotmail.com)

Tuning: Standard


e|--3-------------------3-3----------------------3----3-----------
B|--3-------------------3-3----------------------3----3-----------
G|--0-------------------0-0----------------------0----0-----------
D|--0-------------------0h2----------------------0----0-----0-----
A|--2-------------------3-3----------------------x----2--0h2-2p0--
E|-----------------------------------------------3--------------0-
  1.It was one of those great nights, it was in Ohio
  2.         Got home a little late, it was 3  o'clock 


e|--3----3-----------------------3-----------------------------3----3-----------
B|--3----3-----------------------3-----------------------------3----3-----------
G|--0----2-----------------------0-----------------------------0----0-----------
D|--2----2-----------------------2-----------------------------0----0-----0-----
A|--2----0-----------------------3-----------------------------x----2--0h2-2p0--
E|--0----------------------------------------------------------3--------------0-
                 It feels like I got so old last  night  in   Ohio. 
                   It rained for just a little bit and then it stopped


e|--3----------3----------------------------3----------------------------3---
B|--3----------3----------------------------3----------------------------3---
G|--0----------0----------------------------0----------------------------2---
D|--2--0h2-0h2-2----------------------------2----------------------------2---
A|--2----------2----------------------------3----------------------------0---
E|--0----------0-------------------------------------------------------------
                 Emily had tattoos on her   arms. I don't have none on   mine.
                 Emily said she was from MilWaulkee. I thought it was Virginia
                                                _____________________
                                                                     |1st time
e|-----------------------3 ---------------------|--3---3---3-3-------|
B|-----------------------3----------------------|.-3---3---3-3------.|
G|-----------------------0----------------------|--0---0---0-0-------|
D|-----------------------2----------------------|.-0---0---0h2------.|   
A|-----------------------3----------------------|--x---2---3-3-------|   
E|----------------------------------------------|--3-----------------|   
  She said she's from Virginia, but now it's       Ohio. 
  Then she said "yeah,virginia, but now it's

  __________________
                    |2nd time
e|----3---3---3-----|
B|.---3---3---3----.|
G|----0---0---0-----|
D|.---2---0---2----.|  
A|----2---x---3-----|
E|----0---3---------|
     Ohio

e|--3-----------------3-----------------------------3---3-3-3-3--
B|--3-----------------3-----------------------------3---3-3-3-3--
G|--0-----------------0-----------------------------0---0-0-0-0--
D|--0-----------------2-----------------------------0---0-0-0-2--
A|--2-----------------3-----------------------------x---2-3-2-2--
E|--------------------------------------------------3---------0--
      And people kept coming home last night at 5 O'clock

e|--3----------------3-------------------------------3---3-3-3-3--
B|--3----------------3-------------------------------3---3-3-3-3--
G|--2----------------0-------------------------------0---0-0-0-0--
D|--2----------------2-------------------------------0---0-0-0-2--
A|--0----------------3-------------------------------x---2-3-2-2--
E|---------------------------------------------------3---------0--
      I thought they just might never stop waking me up. 

e|--3---------3--------------------------------3--------
B|--3---------3--------------------------------3--------
G|--0---------0--------------------------------0--------
D|--2-0h2-0h2-2--------------------------------2--------
A|--2---------2--------------------------------3--------
E|--0---------0-----------------------------------------
               Now I'm on the steps to the sidewalk. 

e|-------------3--------------------------3-------------
B|-------------3--------------------------3-------------
G|-------------2--------------------------0-------------
D|-------------2--------------------------2-------------
A|-------------0--------------------------3-------------
E|------------------------------------------------------
    It started raining                    down.

e|-------------------|--3---3--------------3-----------------|
B|-------------------|.-3---3--------------3----------------.|
G|-------------------|--0---0--------------0-----------------|x4
D|-------------------|.-0---0--------------2----------------.|   
A|-------------------|--x---2--------------3-----------------|
E|-------------------|--3------------------------------------|
 
  I think it's kind of  funny that I'm in Ohio on some steps. 
                               The rain is making my feet wet. 
                              As I sat Jeremiah left for work. 
                             I went back inside and fell asleep. 

e|---3--------------3--------------3----|-----3----------3----------3--------|--3--
B|.--3--------------3--------------3---.|.----3----------3----------3----.---|--3--
G|---0--------------0--------------0----|-----0----------2----------0-----x4-|--0--
D|,--2--------------0--------------2---.|.----0----------2----------2----.---|--0--
A|---2--------------x--------------3----|-----x----------0----------3--------|--2--
E|---0--------------3-------------------|-----3------------------------------|--3--
       In Ohio, California, or wherever   Someday you'll end up in Ohio