#----------------------------PLEASE NOTE-----------------------------#
# This represents the author's own work and interpretation of the    #
# song. To be used only for private study, scholarship, or research. #
#--------------------------------------------------------------------#

Artist: Limbeck
 Album: Hi, Everything's Great
  Song: Honk + Wave

[http://www.indieguitartabs.com/bands/limbeck/honk__wave.html]

Tabbed by: Matt Lyons


G          C                 Bm    Em
She really broke my heart in two.
G                         C add9        G
Four years later, I still never forgave her.

e|------------------------|
B|------------------------|
G|------0-----------0-----|
D|--0h2---2p0-----0-------|
A|------------0h2---------|
E|--------------------3---|

G                     C           Bm     Em
   The thing is, when I was ready to,
       G
I had completely dismissed her.
      C                             G
Now I think I'm driving through her state.

    G                      C add9                  Em
And I'm not ready for some burned down bridge just yet.
e|------------------------|
B|------------------------|
G|------0-----------0-----|
D|--0h2---2p0-----0-------|
A|------------0h2---------|
E|--------------------3---|
    G                     C                  Em
And I'm not sayin’ that I want anything from you.
e|---------------------|
B|---------------------|
G|---------------------|
D|------0----0---------|
A|--0h2---0h2--0h2p0---|
E|-------------------3-|
    G                        C add9            Bm    Em
The only thing I really want now if I see you, Suze,
         G
Is if we drove side by side,
      Am                    C
On a highway in the beehive state,
                       G           C
That we could honk and wave.

G                    C              Bm      Em
   So I'll just keep taking the 15 through.
G                         C                   G
It's kind of early so I'm swerving and turving.
e|------------------------|
B|------------------------|
G|------0-----------0-----|
D|--0h2---2p0-----0-------|
A|------------0h2---------|
E|--------------------3---|
G                 C               Bm       Em
   There's really nothing else to do,
       G
Except sit and keep steering,
C                             G
Thinking, driving through her state.

    G                      C add9                  Em
And I'm not ready for some burned down bridge just yet.
e|------------------------|
B|------------------------|
G|------0-----------0-----|
D|--0h2---2p0-----0-------|
A|------------0h2---------|
E|--------------------3---|
    G                     C add9             Em
And I'm not sayin’ that I want anything from you.
e|---------------------|
B|---------------------|
G|---------------------|
D|------0----0---------|
A|--0h2---0h2--0h2p0---|
E|-------------------3-|
    G                        C                 Bm       Em
The only thing I really want now if I see you, Suze,
         G
Is if we drove side by side,
     Am                     C
On a highway in the beehive state,
                       G
That we could honk and wave.
Em                C        G
    Yeah we could Honk and Wave.

e|------------|
B|------------|
G|------0-----|
D|--0h2---2p0-|
A|------------|
E|------------|

e|--------------------------|
B|----3---------------------|
G|-/4---2p0-------0-----0---|    X2
D|----------2--0h2----0-----|
A|------------------3-------|
E|--------------------------|

C                               Bm
 I wonder of a way that I could
C                         Am
    Make her feel like an ass,
                                   C
Without her think I'm trying to do that.

C                             Am
I’m thinking of a way that I could
C                          Am
     Make her feel like an ass,
     C add9                         C
Without her think I’m tryin’ to,
      C
Without her thinkin’ that.


      G                      Bm                      Em
Cause I'm not ready for some burned down bridge just yet.
e|------------------------|
B|------------------------|
G|------0-----------0-----|
D|--0h2---2p0-----0-------|
A|------------0h2---------|
E|--------------------3---|
    G                     C add9             Em
And I'm not sayin’ that I want anything from you.
e|------------------------|
B|------------------------|
G|------0-----------0-----|
D|--0h2---2p0-----0-------|
A|------------0h2---------|
E|--------------------3---|
    G                        C                 Bm      Em
The only thing I really want now if I see you, Suze, yeah.
         G
Is if we drove side by side,
     Am                C add9    C
On a highway in the beehive state,
           Am
Yeah if we drove side by side,
     C
On a highway in the beehive state,
                       G
That we could honk and wave.
Em                C        G
    Yeah we could Honk and Wave.

Em C G

e|--------------------------|
B|----3---------------------|
G|-/4---2p0-------0-----0---|    X2
D|----------2--0h2----0-----|
A|------------------3-------|
E|--------------------------|

End on G