#----------------------------PLEASE NOTE-----------------------------#
# This represents the author's own work and interpretation of the    #
# song. To be used only for private study, scholarship, or research. #
#--------------------------------------------------------------------#

Artist: Kurt Vile
  Song: In My Baby's Arms

[http://www.indieguitartabs.com/bands/kurt_vile/in_my_babys_arms.html]

Tabbed by: Glen Morrison

These are the main lines I've figured from this video:

http://www.youtube.com/watch?v=VbfegHxLYaU


Tuning
  D       ------0-----------0----
  B       --0-----0-----0-----0--
  F#      1--1-----1--0--0-----0-
  D       -0--0--0--0--0--0--0--0
  B(up)   0-----------0----------
  D       -----------------------

0:12
------0----------------
--0-----0-----0-----0--
8--8-----8--3--3-0---0-
-0--0--0--0--0--0--3--3
8-----------0----0-----
-----------------------

0:21
-----------------------
-----0----0----0--0--0-
----0----0----0--0--0--
---2--2-2--2-2--2--2--2
0-3----3----3----3-----
-----------------------

1:28
--9---7-------4---2---0
---0----0------0-----0-
8--------8--3-------5--
-0--0--0--0--0--0--0--0
8-----8-----8-----0----
-----------------------

2:54
--4--0--2-/4-----4-----
---0----------0-----0--
1----------0---0-----0-
-0--0--0--0--0--0--0--0
0----0-----0-----0-----
-----------------------

2:59
--9--/12------4-/7----0
---0----0------0-----0-
8--------0--3-------5--
-0--0--0--0--0--0--0--0
8-----0-----0----0-----
-----------------------