Pale Horse Tab

More John Vanderslice Tabs

Artist: John Vanderslice
 Album: Cellar Door
  Song: Pale Horse

Tabbed by: ttiot8

Standard Tuning
Capo on 2

I'm pretty sure this is correct, but there's one chord that I think I'm playing
that might be slightly different than what John Vanderslice does. If anyone knows
what exactly he's playing then I'd be grateful for the correction.

e|-------------------------
B|-------------------------
G|-------------------------
D|-------0-0-0-----0-0-0---
A|-2-----2/5-7-----2/5-2---
E|-0--035-------035--------
(from the haunts of daily life)


e|------------------------
B|------------------------
G|-0-000-0-000-0-000-000--
D|-0-000-0-000-0-000-000--
A|-7-777-6-666-5-555-444--
E|------------------------
(rise like lions after a slumber)

  C/G
e|----
B|-1--
G|-0--
D|-2--
A|-3--
E|-3--
Chord that I play but might not be right

Everything after this is then repeated

e|---------------
B|---------------
G|---------------
D|----0-000------
A|-024-----4202--
E|---------------
(end guitar bit that is played over the main part)


#----------------------------PLEASE NOTE-----------------------------#
# This represents the author's own work and interpretation of the    #
# song. To be used only for private study, scholarship, or research. #
#--------------------------------------------------------------------#

blog comments powered by Disqus