#----------------------------PLEASE NOTE-----------------------------#
# This represents the author's own work and interpretation of the    #
# song. To be used only for private study, scholarship, or research. #
#--------------------------------------------------------------------#

Artist: Joanna Newsom
 Album: The Milk-Eyed Mender
  Song: Peach, Plum, Pear

[http://www.indieguitartabs.com/bands/joanna_newsom/peach_plum_pear.html]

Tabbed by: Kent V.

sorry, only the main picking pattern

[capo 2nd fret]

Am7 Fadd9 Dsus2-4 Gsus4 repeat


Am7
-5---5---5---5---5---5---5---5-
-3---3---3---3---3---3---3---3-
-------4-----------4---------4-
-------------------------------
-2-----------2-----------2-----
-------------------------------

Fadd9
-5---5---5---5---5---5---5---5-
-3---3---3---3---3---3---3---3-
-------0-----------0---------0-
-------------------------------
-------------------------------
-3-----------3-----------3-----

Dsus2-4
--2--5--2--5--2--5--2--5-------
--0--3--0--3--0--3--0--3-------
-------------------------------
-------------------------------
-------------------------------
--0--0--0--0--0--0--0--0-------

Gsus4
-5---5---5---5---5---5---5---5-
-3---3---3---2---2---2---2---2-
-------2-----------2---------2-
-------------------------------
-0-----------0-----------0-----
-------------------------------