#----------------------------PLEASE NOTE-----------------------------#
# This represents the author's own work and interpretation of the    #
# song. To be used only for private study, scholarship, or research. #
#--------------------------------------------------------------------#

Artist: I Am Kloot
  Song: No Fear of Falling

[http://www.indieguitartabs.com/bands/i_am_kloot/no_fear_of_falling.html]

Tabbed by: glen_morrison@hotmail.com

intro (basis of song)
                      
e---------------------------0-------------------------------------3---0----------------------------------------------------0-------------
B----------1---1-1---1------1--1-----1-----------1---1-1---1------1---1------------0h1p0----1-------1----------(1)---------1--1-----1----
G-----0--2---0-----0---0----0------0--------0--2---0-----0---0----0---0-------0-------------0-------0----------(0)---------0------0------
D-0h2------------2---0------2----3-----0h2-------------2---0------2---------0---0-------------------------3-----3----------2----3--------
A------------------------3--3----------------------------------3--3-----3-2--------0----------------------------------0-3--3-------------
E-------------------------------------------------------------------------------------------3---1---0---1---0-3--------------------------




                
variations and fills

0:16          0:20         0:39                   0:46 1:05             Last chord
e------------ ------------ -------3---------3---- ---  ---------------- ---
B------------ ------------ ---1-----1-----1---1-- -1-  -------------1-- -1-
G-2-0-0------ -2-0-------- ---0-------0---0-----0 -0-  ---------------- -0-
D-------2---- -----2------ -2---2-------2-------- -0-  -7-6-5-4---3---- -2-
A---------3-- -------2-3-- ---------------------- -3-  ---------------- ---
E------------ ------------ ---------------------- ---  ---------3------ -3-