Wounded Bird Tab

More Heather Woods Broderick Tabs

Artist: Heather Woods Broderick
 Album: From the Ground
  Song: Wounded Bird

Tabbed by: Anton Hallmann

CAPO 3rd Fret

INTRO:
|-----------------------------------|
|----0---0---0-----0---0---0--------|
|------0---0---------0---0----------|
|-----------------------------------|
|---------------2-------------------|
|--0--------------------------------|

VERSE:
  Em
|-----------------------------------|
|----0---0---0-----0---0---0--------|
|------0---0---------0---0----------|
|-----------------------------------|
|---------------2-------------------|
|--0--------------------------------|

   G            C
|-----------------------------------|
|----0---0---0-----0---0---0--------|
|------0---0---------0---0----------|
|-----------------------------------|
|---------------3-------------------|
|--3--------------------------------|

|-----------------------------------|
|----0---0---0-----0---0---0--------|
|------0---0---------0---0----------|
|--2--------------------------------|
|---------------3-------------------|
|-----------------------------------|

|-----------------|
|----0---0---0----|
|------0---0------|
|-----------------|
|--3--------------|
|-----------------|

Em              G        C
i will sit like wounded bird
Em                    G          C
heavy with hunger but beak it is pursed
Em                     G        C
and i do not know what after we thirst
Em                   G               C
something we know or something we'll learn

Em

i was born taciturn and will remain
much like a cloud remorseful with rain
and i do not know what after we hurt

Em	             C               G
something we know or something we'll learn

CHORUS:
D* 054030

Em      C         G     D*         Em
eyelids aren't as heavy as they've seemed
hands not as delicate as i remember them being

Em C G D* Em 2x

VERSE:

marry mine with means to leave
as friends put down their history
and casablanca is calling me
Em              C          G
home is pulling toward the sea

CHORUS
eyelids aren't as heavy as they've seemed
hands not as delicate as i remember them being

VERSE/OUTRO:

i will sit like wounded bird
heavy with hunger but beak it is pursed.

#----------------------------PLEASE NOTE-----------------------------#
# This represents the author's own work and interpretation of the    #
# song. To be used only for private study, scholarship, or research. #
#--------------------------------------------------------------------#

blog comments powered by Disqus