#----------------------------PLEASE NOTE-----------------------------#
# This represents the author's own work and interpretation of the    #
# song. To be used only for private study, scholarship, or research. #
#--------------------------------------------------------------------#

Artist: Grandaddy
  Song: Elevate Myself

[http://www.indieguitartabs.com/bands/grandaddy/elevate_myself.html]

Tabbed by: Paperthintelevision (matt [at] mikes-revenge [dot] com)





intro/break/outro
e[------------------------------|
B[------------------------------|
G[--6-/-7-7-------\-3-----------|
D[--6-/-7-7--(x3)-\-3-----------|
A[--4-/-5-5-------\-1-----------|
E[------------------------------|
  hah-ah uh-uh hah-ah uh-uh...

verse1
e[----------------2-------------|
B[----------------2-------------|
G[--7-------------3-------------|
D[--7-------------4-------------|
A[--5-------------4-------------|
E[----------------2-------------|
  I don't...      the young girls...

e[------------2-----------------|
B[------------2-----------------|
G[--7---------3-----------------|
D[--7---------4---------4-4-4---|
A[--5---------4---------4-4-4---|
E[------------2---------0-0-2---|
   or play... how and why~

chorus
e[-------------------------------------|
B[-------------------------------------|
G[-4-----/-----4----------7------------|
D[-5-----/-----7----------7-----4-4-4--|
A[-5-----/-----7----------5-----4-4-4--|
E[-3-----/-----5----------------0-0-2--|
   I just...   I just...  myse ~ lf

e[-------------------------------------|
B[-------------------------------------|
G[-4-----/-----4----------7-----6---4--|
D[-5-----/-----7----------7-----6---6--|
A[-5-----/-----7----------5-----4---4--|
E[-3-----/-----5-----------------------|
   I just...   I just...  myse ~ lf

e[--------------------------------------|
B[--------------------------------------|
G[-4-----/-----4--------7--------3------|
D[-5-----/-----7--------7--------3------|
A[-5-----/-----7--------5--------1------|
E[-3-----/-----5------------------------|
   Maybe...    wear...  hate...  aaaaaa uhhhh

e[-------------------------------2--0-|
B[------------------------------------|
G[-4-----/-----4----------1------1--1-|
D[-5-----/-----7----------2------2--2-|
A[-5-----/-----7----------2------2--2-|
E[-3-----/-----5----------------------|
   I just...   I just...  myse ~ lf

(intro/break/outro)

verse2
e[----------------2-------------|
B[----------------2-------------|
G[--7-------------3-------------|
D[--7-------------4-------------|
A[--5-------------4-------------|
E[----------------2-------------|
  I don't...      world goes by...

e[----------------2--------------------|
B[----------------2--------------------|
G[--7-------------3--------------------|
D[--7-------------4------------4-4-4---|
A[--5-------------4------------4-4-4---|
E[----------------2------------0-0-2---|
    or tradin'...  ikeal light~

chorus-to-interlude

e[-------------------------------------|
B[-------------------------------------|
G[-4-----/-----4----------7------------|
D[-5-----/-----7----------7-----4-4-4--|
A[-5-----/-----7----------5-----4-4-4--|
E[-3-----/-----5----------------0-0-2--|
   I just...   I just...  myse ~ lf

e[-------------------------------------|
B[-------------------------------------|
G[-4-----/-----4----------7-----6---4--|
D[-5-----/-----7----------7-----6---6--|
A[-5-----/-----7----------5-----4---4--|
E[-3-----/-----5-----------------------|
   I just...   I just...  myse ~ lf

e[--------------------------------------|
B[--------------------------------------|
G[-4-----/-----4--------7--------3------|
D[-5-----/-----7--------7--------3------|
A[-5-----/-----7--------5--------1------|
E[-3-----/-----5------------------------|
   Maybe...    wear...  hate...  aaaaaa uhhhh

interlude

e[-------------------------------2--0-|
B[-------------------------------0--0-|
G[-4-----/-----4----------1------1--1-|
D[-5-----/-----7----------2------2--2-|
A[-5-----/-----7----------2------2--2-|
E[-3-----/-----5----------------------|
   I just...   I just...  get up off...

e[-3-------------------2----0--------|
B[-3-------------------0----0--------|
G[-4-------------1-----1----1--------|
D[-5-------------2-----2----2--------|
A[-5-------------2-----2----2--------|
E[-----------------------------------|
     and elevate myse ~ lf


e[-3-------------------2----0--------|
B[-3-------------------0----0--------|
G[-4-------------1-----1----1--------|
D[-5-------------2-----2----2--------|
A[-5-------------2-----2----2--------|
E[-----------------------------------|
     and elevate myse ~ lf

e[-3-------------------2----0--------|
B[-3-------------------0----0--------|
G[-4-------------1-----1----1--------|
D[-5-------------2-----2----2--------|
A[-5-------------2-----2----2--------|
E[-----------------------------------|
     and elevate myse ~~~ lf

e[---3-----------------------------|
B[---3-----------------------------|
G[---4-----6-----3-----5-----7-----|
D[---5-----7-----3-----5-----7-----|
A[---5-----7-----1-----3-----5-----|
E[---------------------------------|
    aaah  aaah  aaah  aaah  aaah~

(intro/break/outro)

verse3
e[----------------2-------------|
B[----------------2-------------|
G[--7-------------3-------------|
D[--7----M--------4------M------|
A[--5-------------4-------------|
E[----------------2-------------|
  I don't...      apart these da ~ ys

e[----------------2--------------------|
B[----------------2--------------------|
G[--7-------------3--------------------|
D[--7---M---------4-------M----4-4-4---|
A[--5-------------4------------4-4-4---|
E[----------------2------------0-0-2---|
    rather...     Be on my wa ~ yyy

chorus
e[-------------------------------------|
B[-------------------------------------|
G[-4-----/-----4----------7------------|
D[-5-----/-----7----------7-----4-4-4--|
A[-5-----/-----7----------5-----4-4-4--|
E[-3-----/-----5----------------0-0-2--|
   I just...   I just...  myse ~ lf

e[-------------------------------------|
B[-------------------------------------|
G[-4-----/-----4----------7-----6------|
D[-5-----/-----7----------7-----6------|
A[-5-----/-----7----------5-----4------|
E[-3-----/-----5-----------------------|
   I just...   I just...  myse ~ lf

e[--------------------------------------|
B[--------------------------------------|
G[-4-----/-----4--------7--------3------|
D[-5-----/-----7--------7--------3------|
A[-5-----/-----7--------5--------1------|
E[-3-----/-----5------------------------|
   Maybe...    wear...  hate...  aaaaaa uhhhh

		  (rest)

e[---------------------------------------------|
B[---------------------------------------------|
G[-4-----/-----4----------3----------5---------|
D[-5-----/-----7----------3----------5---------|
A[-5-----/-----7----------1----------3---------|
E[-3-----/-----5-------------------------------|
   I just...   I just...  I just...  I just...

e[----------------------------------2---3--2--0--2--|
B[----------------------------------3---3--3--3--3--|x3
G[-4-----/-----4--------------------2---2--2--2--2--|
D[-5-----/-----7------------------------------------|
A[-5-----/-----7------------------------------------|
E[-3-----/-----5------------------------------------|
   I just...   I just wanna elevate myse ~ lf

(intro/break/outro)