#----------------------------PLEASE NOTE-----------------------------#
# This represents the author's own work and interpretation of the    #
# song. To be used only for private study, scholarship, or research. #
#--------------------------------------------------------------------#

Artist: Grandaddy
  Song: Disconnecty (acoustic)

[http://www.indieguitartabs.com/bands/grandaddy/disconnecty.html]

Tabbed by: Paperthintelevision (matt [at] mikes-revenge [dot] com)



This song was performed by Jason Lytle
and recorded by the WOXY.com Lounge Acts.
I've covered this song many times before
and decided to make a tab for it.
send me an email for the mp3 if you want.

	-=-=-=-=-=-=-=-=-=-=-=-=-=-=-=-=-=-=-=-=-=-=-=
	Standard Tuning:
	E a d g b e
	CHORDS:
	    C  F  Am  D  Dsus Asus  A#
	    ^  ^  ^   ^  ^    ^     ^
	e[-----0--0---2--3----0-----0-------------]
	B[-----1--1---3--3----3-----6-------------]
	G[--5--2--2---2--2----2-----7-------------]
	D[--5--3--2-----------------8-------------]
	A[--3--3--------------------8-------------]
	E[----------------------------------------]

	Strumming constantly down the whole song.
	-=-=-=-=-=-=-=-=-=-=-=-=-=-=-=-=-=-=-=-=-=-=-=

INTRO
e[--------------------]
B[--------------------]
G[--5---------5--5----]
D[--5--(X14)--5--5----]    (X4)
A[--3-----------------]
E[------------3--5----]

C                 F
Dearest mom, your yearling son
Am                 D Dsus D
has sent a message through
F                  D Dsus D          C
he's disconnected, but he still loves you

BREAK
e[-------------]
B[-------------]
G[--5--5--5----]
D[--5--5--5----]
A[--3----------]
E[-----3--5----]

C                 F
weather lies, and motor rules
Am                 D Dsus D
the colour printer blues
F             D  Dsus  D
on the engine air his thoughts flow
C         A#      Dsus    Asus   D
truuuuuue toooooo yooooouuu~

e[--0------0---]
B[--6------1---]
G[--7------2---]
D[--8------3---]
A[--8------3---]
E[-------------]
    ^      ^
    A#     F             A#
disconnecty said to disconnect

           F         A#  
but has he read the tiny text

             F
that sais to dissconect

A#                   F                
he'd best decide the rest of all your

(hold notes)
e[------------------------------------]
B[------------------------------------]
G[--7------------7--------------8-----]
D[--10-----------8--------------10----]
A[--8------------8--------------6-----]
E[------------------------------------]
    ^            ^              ^
    life will be alright to fly alone

BREAK X2
forever more

ROCKIN' CHORD PART (strum it)
e[--------------------------]
B[--5--6--5--5--5--7--6--7--]
G[--5--5--5--4--5--5--5--5--]
D[--5--5--5--5--5--5--5--5--]
A[--3--3--0--0--0-----------]
E[--------------------------]

BREAK X2

C                 F
Dearest mom, your yearling son

Am                 D Dsus D
has sent a message through

F                  D Dsus D           C
he's disconnected, but he still loves yoooooou

A#      Dsus   Asus     D
hooooo, ooooooooooooooooh


A#          F             A#
disconnecty said to disconnect

           F         A#  
but has he read the tiny text

             F
that sais to dissconect

A#                   F                
he'd best decide the rest of all your

END
(hold notes)
e[------------------------------------]
B[------------------------------------]
G[--7------------7--------------8-----]
D[--10-----------8--------------10----]
A[--8------------8--------------6-----]
E[------------------------------------]
    ^            ^              ^
    life will be alright to fly alone

e[---------------------]
B[---------------------]
G[--5----------5--5----]
D[--5----------5--5----]
A[--3------------------]
E[-------------3--5----]
    Forever moooooooore

e[---------------------]
B[---------------------]
G[--5----------5--5----]
D[--5----------5--5----]
A[--3------------------]
E[-------------3--5----]
    And ever moooooore