Jeez Louise Tab

More Grandaddy Tabs

Artist: Grandaddy
  Song: Jeez Louise

Tabbed by: Paperthintelevision (matt [at] mikes-revenge [dot] com)



Notes:
the original youtube.com video of Jason playing this song
is where I figured it out. figure out the strumming pattern
along with the video here: http://youtube.com/watch?v=hcZCbvhq1CI

So yeah, there's a lot of octaves involved in this song, Because
Jason likes to play power chords!


	-=-=-=-=-=-=-=-=-=-=-=-=-=-=-=-=-=-=-=
	Standard Tuning:
	E a d g b e
	CHORDS:
	   E1 A1 C1 G1  F F2 A#  D2 C2 C3  B2 A2 G2 F# Dm
	    ^  ^  ^  ^  ^  ^  ^   ^  ^  ^   ^  ^  ^  ^  ^
	e[--0--0--0--3--1------6--------8---7--5--3--2--1--------]
	B[--0--2--1--0--1------6--------8---7--5--3--2--3--------]
	G[--1--2--0--0--2--10--7--7--5--9---8--6--4--3--2--------]
	D[--2--2--2--0--3--10--8--7--5--10--9--7--5--4--0--------]
	A[--2--0--3--2--3--8---8--5--3--10--9--7--5--4-----------]
	E[--0--------3--1------6--------8---7--5--3--2-----------]

	all chords with the number 2 after them are 
	power chords. All chords with 1 or nothing 
	after them are open chords, otherwise, they
	are stated in the chord chart.
	-=-=-=-=-=-=-=-=-=-=-=-=-=-=-=-=-=-=-=

INTRO/BRIDGE RIFF
e[-------------0---]
B[-------------0---]
G[-----10-\-9--1---]
D[--9--9----9--2---]  (X3)
A[--8--8----8--2---]
E[--7--7----7--0---]


E1          D2
Remembering Jeez Louise
C2              A2                  G2 
And all of the bedroom window screens
          F                    C1 (pick off D string)
Thrown away for our teenage dreams

A1    E1

E1                 D2
Shacked up at Modesto Inn
F2                      B2     
And all of a sudden your mom crashed in
C3                     A2                 D2
And she said: "No, he's not the one for you"
B2               C3 
Yeah, your mom, she always hated me
          A2                        D2
Grab your keys, your clothes, your shoes
       B2                    F (pick off E string)          
Jeez Louise you should have avoided me


A#              Dm        C1          G1
      Jeez Louise, aaaaah uhhhh aaah uhhhh

G2 \ F#2 \ F (pick off E string)

A#              Dm        C1          G1

      Jeez Louise, aaaaah uhhhh aaah uhhhh

INTRO/BRIDGE RIFF

E1           D2
Remembering Jeez Louise
C2                  A2              G2
A blanket in the summer evening breeze
         F                     C1 (pick off D string)
Secrets shared in our youth released

A1  E1


E1                  D2
Then one day they took you away
F2                      B2     
And all of a sudden your mom called me
         C3                A2             D2
And she said: "No, she's not the one for you"
          B2                   C3
Yeah, your mom, she always hated me
         A2                    D2
So just leave her alone, you lose
       B2                       F (pick off E string)
Jeez Louise you should have avoided me

A#              Dm        C1          G1
      Jeez Louise, aaaaah uhhhh aaah uhhhh

G1 \ F# \ F (pick off E string)

A#              Dm        C1          G1
      Jeez Louise, aaaaah uhhhh aaah uhhhh

G1 \ F# \ F (pick off E string)

A#              Dm        C1          G1
      Jeez Louise, aaaaah uhhhh aaah uhhhh

G1 \ F# \ F1 (pick off E string)

A#~
      Jeez Louise~

          Dm               C1              G
	e[---1-----0-----------------------1-]
	B[-----3-----3---3---3-----1-----0-0-]
	G[-------2-----2-------0-----0-----0-]
	D[-0----------------2----2-----2---0-]  (X4) then do a cool fade out
	A[------------------3--------------2-]
	E[---------------------------------3-]

#----------------------------PLEASE NOTE-----------------------------#
# This represents the author's own work and interpretation of the    #
# song. To be used only for private study, scholarship, or research. #
#--------------------------------------------------------------------#

blog comments powered by Disqus