#----------------------------PLEASE NOTE-----------------------------#
# This represents the author's own work and interpretation of the    #
# song. To be used only for private study, scholarship, or research. #
#--------------------------------------------------------------------#

Artist: Gorky's Zygotic Mynci
 Album: How I Long to Feel That Summer in My Heart
  Song: Where Does Yer Go Now

[http://www.indieguitartabs.com/bands/gorkys_zygotic_mynci/01_where_does_yer_go_now.html]

Tabbed by: Brandon Wild (thesego_211@hotmail.com)


Write me with any comments, suggestions.... or if you find any mistakes!

Intro

Sorry, the timing is a bit tricky to tab out...

  C#              F#m               C#                 F#m
|---------------|-----------------|------------------|-------------------|
|---------------|-----------------|------------------|-------------------|
|--/10-8-10-8---|-----------------|--------/10-8-10--|--13---11----------|
|---------------|--11---7-----/9--|--6---------------|------------11---7-|
|---------------|-----------------|------------------|-------------------|
|---------------|-----------------|------------------|-------------------|

  C#              G#
|---------------|-----------------|
|---------------|-----------------|
|------/10-8-10-|--8--------------|
|--6------------|-----------------|
|---------------|-----------------|
|---------------|-----------------|


F  G  C x2


Verse
   F        G      C
Oh when the winter comes

   F      G     C
I feel it as it runs


Chorus
    C#           F#m
??? ??? I saw the moon last night

       C#              F#
It was shining and you know I miss you

C#                      G#
When I'm gone thats too bad

        C#        G#
Sing it again and again

F  G  C x2

Verse
Oh she has settled down
But inside she still frowns

Chorus x2
Because she saw the moon last night
It was shining and you know she misses you
When she's gone that's too bad

                  (keep playing G#)
Sing it again and again and again and again.....


Outro

Cello part

  C#              F#m             C#                 F#m
|---------------|---------------|---------------|---------------|
|---------------|---------------|---------------|---------------|
|---------------|---------------|---------------|--4------------|
|--------3--6---|--4------------|--------3--6---|-----7--6--4---|
|--4--6---------|-----4--7--6---|--4--6---------|---------------|
|---------------|---------------|---------------|---------------|

  C#              G#

|---------------|---------------|
|---------------|---------------|
|---------------|-------------.-|
|--------3--6---|-------------.-|
|--4--6---------|---------------|
|---------------|--4------------|