Flavors Tab

More Gomez Tabs

Artist: Gomez
 Album: Abandoned Shopping Trolley Hotline
  Song: Flavors

Tabbed by: Jonathan Danilovich

Intro:

e|-------5-----------------||
B|-------5---5---5---------||
G|-------4---4---4---------||
D|-------3-----------------||
A|-----------4---3---------||
E|---0------------------3--||


Verse:

e|---------------5-------------3-----||
B|-----------5------5--------------5-||
G|-------4-------------4---4---------||
D|-----------3-----------------------||
A|------------------4------3---------||
E|---0-------------------------------||


Chorus:

   Company cars and shoes were never meant to play the blues...
e|--------------------3---------------------------------------------||
B|-5-------5----------3----------------3-----------------------5----||
G|-4-------4----------4----------------2-------------------4--------||
D|-5-------5----------5----------------1-----------------------3----||
A|-4-------3----------5----------------2----------------------------||
E|--------------------3---------------------------------0-----------||


Extro:

  (U)             (U)
e|-0--0------------3--|
B|-0-----0--h2-----3--|
G|-2------------2--0--|
D|-2---------------0--|
A|-0---------------2--|
E|-----------------3--|

U = Upstroke
#----------------------------PLEASE NOTE-----------------------------#
# This represents the author's own work and interpretation of the    #
# song. To be used only for private study, scholarship, or research. #
#--------------------------------------------------------------------#

blog comments powered by Disqus