Many Lives -> 49 MP Tab

More Final Fantasy Tabs

Artist: Final Fantasy
 Album: He Poos Clouds
  Song: Many Lives -> 49 MP

Tabbed by: ttiot8

e|------------------------------------------------|
B|--------------11-3143131---1--------------------|
G|-----32--03-----3-------323-320-----------------|
D|---0----3---------------------------------------|
A|------------------------------------------------|
E|-3----------------------------------------------|

e|------------------------------------------------|
B|---33143131----33143131---11--31--1-------------|
G|------------3----------3----3----3--320-----   -|
D|-1----------------------------------------------|
A|-------------3----------------------------------|
E|-------------------------3----------------------|

e|-----------------|
B|-----------------|
G|0-0-0-0--0--0----|
D|---1-1-----------|
A|--------3--1-----|
E|-----------------|

e|------------------------------------------------------65----|
B|--------------11-----------11----1------133--------6--------|
G|-----32--03-------32-03---------3--0---------------7533-----|
D|---0----3---------0---3--------3----3-----------3-----------|
A|--------------------------------1-----------------1---------|
E|-3---------------3------------------------------------------|

e|-----65------------65-------------65------------------------|
B|--------6--------------6---------------6--------------------|
G|---3-----7577--3-----7577----------7577-5-------5-----------|
D|-1--------------1-----------------0------------8-88-8--888--|
A|----------------------------------------------------------5-|
E|----------------------------------3-------------------------|

#----------------------------PLEASE NOTE-----------------------------#
# This represents the author's own work and interpretation of the    #
# song. To be used only for private study, scholarship, or research. #
#--------------------------------------------------------------------#

blog comments powered by Disqus