Stained Glass Windows in the Sky Tab

More Felt Tabs

Artist: Felt
  Song: Stained Glass Windows in the Sky

Tabbed by: Kent V

po - pull off

Intro:
-----------------------------------------------------------------------
----5---------------5-------------5------------------------------------
--5---7-5-4-7-4---5---7-5-4-7-4-----5-7-5-4-7-4----4-4-7-4-5-----------
-----------------------------------------------------------------------
-----------------------------------------------------------------------
-----------------------------------------------------------------------
  C E D C B D B   C E D C B D B   E C D C B D B    B B D B C

Verse:
----------------------------------------------------------------------
----5---------------5-------------5---------------------5po3--5po3----
--5---7-5-4-7-4---5---7-5-4-7-4-----5-7-5-4-7-4-4====---------------5-
----------------------------------------------------------------------
----------------------------------------------------------------------
----------------------------------------------------------------------
  C E D C B D B   C E D C B D B   E C D C B D B B----   E  D  E  D  C

Verse:
-------------------------------------------------------------------3--
----5---------------5-------------5------------------------------5----
--5---7-5-4-7-4---5---7-5-4-7-4-----5-7-5-4-7-4-4==---4-5-7-4--5------
----------------------------------------------------------------------
----------------------------------------------------------------------
----------------------------------------------------------------------
  C E D C B D B   C E D C B D B   E C D C B D B B--   B C D B C E G 
                                                         into organ solo1

Verse:
----------------------------------------------------------------------
----5---------------5-------------5---------------------5po3--5po3----
--5---7-5-4-7-4---5---7-5-4-7-4-----5-7-5-4-7-4-4====---------------5-
----------------------------------------------------------------------
----------------------------------------------------------------------
----------------------------------------------------------------------
  C E D C B D B   C E D C B D B   E C D C B D B B----   E  D  E  D  C

Verse:
-------------------------------------------------------------------3--
----5---------------5-------------5------------------------------5----
--5---7-5-4-7-4---5---7-5-4-7-4-----5-7-5-4-7-4-4==---4-5-7-4--5------
----------------------------------------------------------------------
----------------------------------------------------------------------
----------------------------------------------------------------------
  C E D C B D B   C E D C B D B   E C D C B D B B--   B C D B C E G 
                                                         into organ solo2

past halfway, guitar joins organ in solo2:

--13-15-13-12------------------------------12-13-15-15-
-------------13--------12-13---15-12-13-15-------------
---------------12---12---------------------------------
-------------------------------------------------------
-------------------------------------------------------
-------------------------------------------------------

-13-15-13-12-------------------------------------------
------------13---------------13-15-12-13---------------
--------------12----------12---------------------------
-------------------------------------------------------
-------------------------------------------------------
-------------------------------------------------------

Outro:
---------------------------------
----5---------------5------------
--5---7-5-4-7-4---5---7-5-4-7-4--
---------------------------------
---------------------------------
--------------------------------- Repeat on fade out
  C E D C B D B   C E D C B D B
#----------------------------PLEASE NOTE-----------------------------#
# This represents the author's own work and interpretation of the    #
# song. To be used only for private study, scholarship, or research. #
#--------------------------------------------------------------------#

blog comments powered by Disqus