#----------------------------PLEASE NOTE-----------------------------#
# This represents the author's own work and interpretation of the    #
# song. To be used only for private study, scholarship, or research. #
#--------------------------------------------------------------------#

Artist: Felt
  Song: Down An August Path

[http://www.indieguitartabs.com/bands/felt/down_an_august_path.html]

Tabbed by: Kent V

Intro:
Bb Cm Dm Cm

Bb                       Cm 
Waiting by a bridge that leads you to a stone 

               Dm                      Cm
That says your mother died your mother died

Bb                        Cm
Kneeling by her cross the words they come to life

         Dm                     Cm
You open up inside and start to cry

Cm               Dm          Cm            Bb
Shadows that are falling are merely angels calling

Cm              Dm          Cm
Shadows in the evening say something's got to give

Cm
The way you live this cloud of darkness it must 

--6--6-------------8--8-------------6--6--/6-----------------8--8--8--10--10--8--
--6--6-------------8--8-------------6--6--/6-----------------8--8--8--10--10--8--
--7--7------5------8--8-----4/5-----7--7--/7------5^6^5------8--8--8--10--10--8--
--------5-8---8-5--------5-8---5-8------------5-8-------8-5----------------------
---------------------------------------------------------------------------------
---------------------------------------------------------------------------------
  lift

----10-------10-------10----10-------10-------10---8-----8-----8---8-----8-----8-
-------10-------10-------------10-------10-----------8-----8---------8-----8-----
-10-------10-------10----10-------10-------10----8-----8-----8---8-----8-----8---
---------------------------------------------------------------------------------
---------------------------------------------------------------------------------
---------------------------------------------------------------------------------
 You  can't  be  so  sure   assertiveness  has  never  got  you  anywhere


----10-------10-------10----10-------10-------10---8-----8-----8-----------------
-------10-------10-------------10-------10-----------8-----8---------------------
-10-------10-------10----10-------10-------10----8-----8-----8--------5^6^5------
------------------------------------------------------------------5-8-------8-5--
---------------------------------------------------------------------------------
---------------------------------------------------------------------------------
                           Not        anywhere

-------------10-------10-------10--13--11--10---8-----8-----8--11--10--8---------
----------------10-------10-----------------------8-----8------------------------
----------10-------10-------10----------------8-----8-----8----------------------
---------------------------------------------------------------------------------
---------------------------------------------------------------------------------
---------------------------------------------------------------------------------
           So  I  say  to  you               be  honest  and  be  loyal

---------10-------10-------10--13--11--10---8-----8-----8------------------------
------------10-------10-----------------------8-----8----------------------------
------10-------10-------10----------------8-----8-----8---------4/5--------------
------------------------------------------------------------5-8-----8-5----------
---------------------------------------------------------------------------------
---------------------------------------------------------------------------------
      See  what  faith  can  do   what  faith  can  do

----8-----8-----8----10-------10-------10---8-----8-----8---6-----6-----6--------
------8-----8-----------10-------10-----------8-----8---------6-----6------------
--8-----8-----8---10-------10-------10----8-----8-----8---7-----7-----7----------
---------------------------------------------------------------------------------
---------------------------------------------------------------------------------
---------------------------------------------------------------------------------
 Shadows that are falling are           merely  angels  calling

----8-----8-----8----10-------10-------10---8------13--11------------------------
------8-----8-----------10-------10-----------8----------------------------------
--8-----8-----8---10-------10-------10----8-----8--------------------------------
---------------------------------------------------------------------------------
---------------------------------------------------------------------------------
---------------------------------------------------------------------------------
 Shadows in the evening say something's got to give

---------------------------------------------------------------------------------
--8==--13-13-11------------------------------------------------------------------
----------------8==--13-13-12-8==--13-12-8---------------------------------------
---------------------------------------------------------------------------------
---------------------------------------------------------------------------------
---------------------------------------------------------------------------------
The way you live this cloud of darkness it must

--6--6-------------8--8-------------6--6--/6-----------------8--8--8--10--10--8--
--6--6-------------8--8-------------6--6--/6-----------------8--8--8--10--10--8--
--7--7------5------8--8-----4/5-----7--7--/7------5^6^5------8--8--8--10--10--8--
--------5-8---8-5--------5-8---5-8------------5-8-------8-5----------------------
---------------------------------------------------------------------------------
---------------------------------------------------------------------------------
  lift

---------------------------------------------------------------------------------
----3-----3-----3---3-----3-----3---4-----4-----4---4-----4-----4----------------
------3-----3---------3-----3---------5-----5---------5-----5--------------------
--3-----3-----3---3-----3-----3---5-----5-----5---5-----5-----5------------------
---------------------------------------------------------------------------------
---------------------------------------------------------------------------------
 You  are  on  your  own  you're  father's  never  there

---------------------------------------------------------------------------------
----6-----6-----6---6-----6-----6---4-----4-----4---4-----4-----4----------------
------7-----7---------7-----7---------5-----5---------5-----5--------------------
--7-----7-----7---7-----7-----7---5-----5-----5---5-----5-----5------------------
---------------------------------------------------------------------------------
---------------------------------------------------------------------------------
 He  leaves  you  all  alone  you're  on  your  own

---------------------------------------------------------------------------------
----3-----3-----3---3-----3-----3---4-----4-----4---4-----4-----4----------------
------3-----3---------3-----3---------5-----5---------5-----5--------------------
--3-----3-----3---3-----3-----3---5-----5-----5---5-----5-----5------------------
---------------------------------------------------------------------------------
---------------------------------------------------------------------------------
 So  you  come  to  town  you  shelter  behind  stories

---------------------------------------------------------------------------------
----6-----6-----6---6-----6-----6---4-----4-----4---4-----4-----4----------------
------7-----7---------7-----7---------5-----5---------5-----5--------------------
--7-----7-----7---7-----7-----7---5-----5-----5---5-----5-----5------------------
---------------------------------------------------------------------------------
---------------------------------------------------------------------------------
 Of  your  own  design  they're  all  in  your  mind

----8-----8-----8----10-------10-------10---8-----8-----8---6-----6-----6--------
------8-----8-----------10-------10-----------8-----8---------6-----6------------
--8-----8-----8---10-------10-------10----8-----8-----8---7-----7-----7----------
---------------------------------------------------------------------------------
---------------------------------------------------------------------------------
---------------------------------------------------------------------------------
 When  you  saw  me  coming  you  always  started  running

----8-----8-----8----10-------10-------10---8------13--11------------------------
------8-----8-----------10-------10-----------8----------------------------------
--8-----8-----8---10-------10-------10----8-----8--------------------------------
---------------------------------------------------------------------------------
---------------------------------------------------------------------------------
---------------------------------------------------------------------------------
 Stones  hurled  from  afar  they  always  reach  their  mark

---------------------------------------------------------------------------------
--8==--13-13-11------------------------------------------------------------------
----------------8==--13-13-12-8==--13-12-8---------------------------------------
---------------------------------------------------------------------------------
---------------------------------------------------------------------------------
---------------------------------------------------------------------------------
 They  never  miss  they  always,  always  leave  a  scar

----8-----8-----8----10-------10-------10---8-----8-----8---6-----6-----6--------
------8-----8-----------10-------10-----------8-----8---------6-----6------------
--8-----8-----8---10-------10-------10----8-----8-----8---7-----7-----7----------
---------------------------------------------------------------------------------
---------------------------------------------------------------------------------
---------------------------------------------------------------------------------

----8-----8-----8----10-------10-------10---8------13--11------------------------
------8-----8-----------10-------10-----------8----------------------------------
--8-----8-----8---10-------10-------10----8-----8--------------------------------
---------------------------------------------------------------------------------
---------------------------------------------------------------------------------
---------------------------------------------------------------------------------

---------------------------------------------------------------------------------
--8==--13-13-11------------------------------------------------------------------
----------------8==--13-13-12-8==--13-12-8---------------------------------------
---------------------------------------------------------------------------------
---------------------------------------------------------------------------------
---------------------------------------------------------------------------------

--6--6-------------8--8-------------6--6--/6-----------------8--8--8--10--10--8--
--6--6-------------8--8-------------6--6--/6-----------------8--8--8--10--10--8--
--7--7------5------8--8-----4/5-----7--7--/7------5^6^5------8--8--8--10--10--8--
--------5-8---8-5--------5-8---5-8------------5-8-------8-5----------------------
---------------------------------------------------------------------------------
---------------------------------------------------------------------------------


----10-------10-------10----10-------10-------10---8-----8-----8---8-----8-----8-
-------10-------10-------------10-------10-----------8-----8---------8-----8-----
-10-------10-------10----10-------10-------10----8-----8-----8---8-----8-----8---
---------------------------------------------------------------------------------
---------------------------------------------------------------------------------
---------------------------------------------------------------------------------
 Down  an  august  path  the  light  is  fading  trees  are  shading


----10-------10-------10----10-------10-------10---8-----8-----8-----------------
-------10-------10-------------10-------10-----------8-----8---------------------
-10-------10-------10----10-------10-------10----8-----8-----8--------5^6^5------
------------------------------------------------------------------5-8-------8-5--
---------------------------------------------------------------------------------
---------------------------------------------------------------------------------
 You  from  view  I  can't  see  you

-------------10-------10-------10--13--11--10---8-----8-----8--11--10--8---------
----------------10-------10-----------------------8-----8------------------------
----------10-------10-------10----------------8-----8-----8----------------------
---------------------------------------------------------------------------------
---------------------------------------------------------------------------------
---------------------------------------------------------------------------------
        When  will  you  learn  that  no  one  is  against you

---------10-------10-------10--13--11--10---8-----8-----8------------------------
------------10-------10-----------------------8-----8----------------------------
------10-------10-------10----------------8-----8-----8---------4/5--------------
------------------------------------------------------------5-8-----8-5----------
---------------------------------------------------------------------------------
---------------------------------------------------------------------------------
     We're  all  on  your  side  your  tide  will  return

----8-----8-----8----10-------10-------10---8-----8-----8---6-----6-----6--------
------8-----8-----------10-------10-----------8-----8---------6-----6------------
--8-----8-----8---10-------10-------10----8-----8-----8---7-----7-----7----------
---------------------------------------------------------------------------------
---------------------------------------------------------------------------------
---------------------------------------------------------------------------------
 Shadows  that  are  falling  are  merely  angels  calling

----8-----8-----8----10-------10-------10---8------13--11------------------------
------8-----8-----------10-------10-----------8----------------------------------
--8-----8-----8---10-------10-------10----8-----8--------------------------------
---------------------------------------------------------------------------------
---------------------------------------------------------------------------------
---------------------------------------------------------------------------------
 Shadows  in  the  evening  say  something's  got  to  give

---------------------------------------------------------------------------------
--8==--13-13-11------------------------------------------------------------------
----------------8==--13-13-12-8==--13-12-8---------------------------------------
---------------------------------------------------------------------------------
---------------------------------------------------------------------------------
---------------------------------------------------------------------------------
 The  way  you  live  this  cloud  of  darkness  it  must  lift

---------------------------------------------------------------------------------
------------------------------6--------------------------------------------------
---------7-5======------5/4/5---7======------5/4/5-7-----------------------------
---5-7-8---------------------------------------------5======---------------------
---------------------------------------------------------------------------------
---------------------------------------------------------------------------------

----8-----8-----8----10-------10-------10---8-----8-----8---6-----6-----6--------
------8-----8-----------10-------10-----------8-----8---------6-----6------------
--8-----8-----8---10-------10-------10----8-----8-----8---7-----7-----7----------
---------------------------------------------------------------------------------
---------------------------------------------------------------------------------
---------------------------------------------------------------------------------

----8-----8-----8----10-------10-------10---8------13--11------------------------
------8-----8-----------10-------10-----------8----------------------------------
--8-----8-----8---10-------10-------10----8-----8--------------------------------
---------------------------------------------------------------------------------
---------------------------------------------------------------------------------
---------------------------------------------------------------------------------

---------------------------------------------------------------------------------
--8==--13-13-11------------------------------------------------------------------
----------------8==--13-13-12-8==--13-12-8---------------------------------------
---------------------------------------------------------------------------------
---------------------------------------------------------------------------------
---------------------------------------------------------------------------------

--6--6-------------8--8-------------6--6--/6-----------------8--8--8--10--10--8--
--6--6-------------8--8-------------6--6--/6-----------------8--8--8--10--10--8--
--7--7------5------8--8-----4/5-----7--7--/7------5^6^5------8--8--8--10--10--8--
--------5-8---8-5--------5-8---5-8------------5-8-------8-5----------------------
---------------------------------------------------------------------------------
---------------------------------------------------------------------------------

Fade out:
----10-------10-------10----10-------10-------10---8-----8-----8---8-----8-----8-
-------10-------10-------------10-------10-----------8-----8---------8-----8-----
-10-------10-------10----10-------10-------10----8-----8-----8---8-----8-----8---
---------------------------------------------------------------------------------
---------------------------------------------------------------------------------
---------------------------------------------------------------------------------
 Waiting  by  a  bridge  that  leads  you  to  a  stone 

----10-------10-------10----10-------10-------10---8-----8-----8-----------------
-------10-------10-------------10-------10-----------8-----8---------------------
-10-------10-------10----10-------10-------10----8-----8-----8--------5^6^5------
------------------------------------------------------------------5-8-------8-5--
---------------------------------------------------------------------------------
---------------------------------------------------------------------------------
 That  says  your  mother  died  oh  she  died