#----------------------------PLEASE NOTE-----------------------------#
# This represents the author's own work and interpretation of the    #
# song. To be used only for private study, scholarship, or research. #
#--------------------------------------------------------------------#

Artist: Eef Barzelay
  Song: Lose Big

[http://www.indieguitartabs.com/bands/eef_barzelay/lose_big.html]

Tabbed by: tcd

This is pretty close. Listen and you'll get the gist.

Capo 1st fret:

Intro
    C           F        C
E|-----------------------------------------------
B|--------1--------1--------1--------1--------1--
G|-----------0--------2--------0--------0--------
D|-----2--------3-----------------2--------2-----
A|--3--------------------3-----------------------
E|-----------------------------------------------  x2


    C           F       C
E|-----------------------------------------------
B|--------1--------1--------1--------1--------1--
G|-----------0--------2--------0--------0--------
D|-----2--------3-----------------2--------2-----
A|--3--------------------3-----------------------
E|-----------------------------------------------
    If you're gonna lose then... 

    Am7         F        C
E|-----------------------------------
B|--------1--------1--------1--------
G|-----------0--------2--------0-----
D|-----2--------3-----------------2--
A|--0--------------------3-----------
E|-----------------------------------
    might as well lose big then...

    C           F       C
E|-----------------------------------------------
B|--------1--------1--------1--------1--------1--
G|-----------0--------2--------0--------0--------
D|-----2--------3-----------------2--------2-----
A|--3--------------------3-----------------------
E|-----------------------------------------------
    As always it was always it shall be 

    Am7         F        C
E|-----------------------------------
B|--------1--------1--------1--------
G|-----------0--------2--------0-----
D|-----2--------3-----------------2--
A|--0--------------------3-----------
E|-----------------------------------
    Do you really love me

    D              G
E|--------------2-----------------------2--------
B|-----3-----------3-----3-----3-----------3-----
G|--------2-----------2-----------2-----------2--
D|--0--------0--------------0--------0-----------
A|-----------------------------------------------
E|-----------------------------------------------
    If you promise me you do

 -------------3-----------------------3-----------
 ----0-----------0-----0-----0-----------0--------
 -------0-----------0-----------0-----------------
 ----------0-----------------------0--------------
 -------------------------------------------------
 -3-----------------------3-----------------------


E|--------------------------------------------------
B|-----1--------1--------1-----1--------1--------1--
G|--------2--------2--------------2--------2--------
D|-----------3--------3--------------3--------3-----
A|--------------------------------------------------
E|--1-----------------------1-----------------------
    I'll take that job you want me to


E|----------------------------------------------------------------------
B|---1--------1-----------1--------1--------1-----1--------1--------1---
G|------0--------0-----------0--------0--------------0--------0---------
D|---------2--------2-----------2--------2--------------2--------2------
A|3--------------------2-----------------------3-----------------------3
E|-------------------------------------------------------------
  And do my best, swear that I can pass this

Strum G
..test.

Rinse and repeat