#----------------------------PLEASE NOTE-----------------------------#
# This represents the author's own work and interpretation of the    #
# song. To be used only for private study, scholarship, or research. #
#--------------------------------------------------------------------#

Artist: Eef Barzelay
 Album: Bitter Honey
  Song: Let Us Be Naked

[http://www.indieguitartabs.com/bands/eef_barzelay/07_let_us_be_naked.html]

Tabbed by: Paul Karnatz (http://www.lightpollutionmusic.com)

 

[chords]
e|--------------------------------------------------------------------|
b|----5------9------7---------7-------7--------9----------7-----------|
g|----6------x------7---------7-------6--------9----------7-------7---|
d|----7------9------x---------x-------x--------x----------6-------6---|
a|----0------8------7---------5-------6--------9------------------7---|
e|--------------------------------------------------------------------|
    AMaj     Fdim   E7(add9)  DMaj    D#min7   F#7(add9)  E*7     E7 

[intro]
e|------------------------------------------------------------------|
b|---5~-------5---7--//-10-----9~-----7~----5-----------------------|
g|---6~-----6------------------x------7~----------------------------|
d|---7~---7--------------------9~-----x-----------------------------|
a|--(0)----------------------8------7-------------------------------|
e|------------------------------------------------------------------|

e|------------------------------------------------------------------|
b|------------------------7~-----7~---10---------9~---7~---5--------|
g|------6~-----6--4-------7~-----6~------11------9~---7~------------|
d|------7~---7------7-----x------x----------11---x----6~------------|
a|---0-----0-----------5------6------------------9~-----------------|
e|------------------------------------------------------------------|

e|------------------------------------------------------------------|
b|-----------------------------------9-----7-----5--------9--7--5---|
g|--7~-------7---6-----------------6---6-----6-----6-----6-6--6--6--|
d|--6~-----6---------(7)-//-9----7-------7-----6-----7--7---7--7--7-|
a|--7~---7---------------------0-----------------------0------------|
e|------------------------------------------------------------------|

[verse]
Amaj                     F  E        A                      D
Love's the most tender illusion.  My hands, they cover your eyes. 
D#                             F# E*7  E7                       A    
Breathe and you'll put out the fire in forests of where we will hide.
    A                            F  E      A                     D   
The trees clap their hands as we enter and put flowers into your hair.
    D#                     F# E*7         E7
The shadows will let us be naked.  What's under that rock? Don't be
A
scared  
 

[bridge]
e|----------------------------------------------------------|
b|------------------------5--7--9-------9-----7-----5-------|
g|--1----1----1--(7)----7-------------6---6-----6-----6-----|
d|--x------4--2--(7)--7------------7-------7-----7-----7----|
a|--2--2-----(2)------------------0-------------------------|
e|--0-0------(0)--7~----------------------------------------|

e|----------------------------------------------------------------|
b|------------------------5--7--9-------9-----7-----5------4------|
g|--1----1----1--(7)----7-------------6---6-----6-----6------6----|
d|--x------4--2--(7)--7-------------7-------7-----7-----7------7--|
a|--2--2-----(2)------------------0-------------------------------|
e|--0-0------(0)--7~----------------------------------------------|
 

e|----------------------------------------------------------------|
b|---------3-------------5--3--2--------7~-------5~----5----------|
g|-------6---6---------4----------------8~-------7~--7----7-------|
d|------2------2-----5------------------7~-------7~-7--------7----|
a|----------------4~--------------------x-------------------------|
e|--4~-----------------------------7~--------7--------------------|
       

e|-----------------------------------------|
b|--5~---5------------9------7-----5-------|
g|--7~-----7--------6---6------6-----6-----|
d|--6~-------6----7-------7------7-----7---|
a|-7~----------0---------------------------|
e|--0~-------------------------------------|


[verse]
Amaj                     F  E     A                          D               
Love's the most tender illusion.  Close your eyes and you'll see...
D#                        F#     E*7  E7                          
Nothing is real since you kissed me.  Afloating away we shall be. 

[end]
e|--------------------------------7---5-----------------|
b|-------9-----7-----5----------9---9---7--5------10~~--|
g|-----6---6-----6-----6------6--------------------9~~--|
d|----7-----6-----7------7---7---------------------9~~--|
a|--0~---------------------0~------------------0~-------|
e|------------------------------------------------------|

Note: I was missing my top e string when tabbing this, so at
times different positions may be simpler, and towards the end
of the bridge he does some ornamental notes that are clearly
on the high e, but I didn't bother trying to figure those out.
 The end part, however, is correct with the high e tab.  Also,
in the verse I only indicated the letter name of the chord,
rather than it's accurate spelling.