#----------------------------PLEASE NOTE-----------------------------#
# This represents the author's own work and interpretation of the    #
# song. To be used only for private study, scholarship, or research. #
#--------------------------------------------------------------------#

Artist: Dirty Projectors
  Song: Unmoved

[http://www.indieguitartabs.com/bands/dirty_projectors/unmoved.html]

Tabbed by: Kris Ellestad

Site: knilstad.blogspot.com

| s slide

Tuning: EbAbDbGbBbeb
In 4/4 time


INTRO:

    1  &  2  &  3  &  4  &   1  &  2  &  3  &  4  &
eb|------------------------|------------------------|
Bb|-1-----1-----1-----1----|-1-----1-----1-----1----|
Gb|----2-----2-----2-----2-|----2-----2-----2-----2-|
Db|-------------0----------|-------------0----------|
Ab|-0-----------------0----|-------------------0----|
Eb|------------------------|------------------------|


VERSE 1:

    1  &  2  &  3  &  4  &   1  &  2  &  3  &  4  &
eb|------------------------|-2-----2-----2-----2----|
Bb|-1-----1-----1-----1----|----1-----1-----1-----1-|
Gb|----2-----2-----2-----2-|------------------------|
Db|-------------0----------|-0-----------------0----|
Ab|-0-----------------0----|-------------0----------|
Eb|------------------------|------------------------|

    1  &  2  &  3  &  4  &   1  &  2  &  3  &  4  &
eb|------------------------|------------------------|
Bb|-3-----3-----3-----3----|-5-----5-----5-----5----|
Gb|----4-----4-----4-----4-|----4-----4-----2-----2-|
Db|-3-----------2----------|------------------------|
Ab|------------------------|-3-----------3----------|
Eb|------------------------|------------------------|

    1  &  2  &  3  &  4  &   1  &  2  &  3  &  4  &
eb|------------------------|------------------------|
Bb|-5-----5-----5-----5----|----0-----------0-------|
Gb|----4-----4-----4-----4-|-2--------0--2--------0-|
Db|------------------------|-------0-----------0----|
Ab|-4-----------3----------|------------------------|
Eb|------------------------|-3-----------3----------|

    1  &  2  &  3  &  4  &   1  &  2  &  3  &  4  &
eb|------------------------|------------------------|
Bb|-5-----5-----5-----5----|------------------------|
Gb|----4-----4-----4-----4-|-0-----------------5----|
Db|------------------------|-0-----------------4----|
Ab|-4-----------3----------|-------------------5----|
Eb|------------------------|-3-----3--3--3--3-----2-|
                                             "Un-

CHORUS 1:

    1  &  2  &  3  &  4  &   1  &  2  &  3  &  4  &   1  &  2  &  3  &  4  &
eb|------------------------|------------------------|------------------------|
Bb|(0)---------------------|(0)---------------------|------------------------|
Gb|-0-----------------2----|-0----------------------|------------------------|
Db|-0-----------------2----|-0----------------------|------------------------|
Ab|-------------------3--0-|------------------------|------------------------|
Eb|-3--3--3--3--3--3-------|-3--3--3--3--3--3--3--3-|-3--3--3--3--3--3--3--3-|
   moved - - - - - -..."


VERSE 2/3:

    1  &  2  &  3  &  4  &   1  &  2  &  3  &  4  &
eb|------------------------|-2-----2-----2-----2----|
Bb|-1-----1-----1-----1----|----1-----1-----1-----1-|
Gb|----2-----2-----2-----2-|------------------------|
Db|-------------0----------|-0-----------------0----|
Ab|-0-----------------0----|-------------0----------|
Eb|------------------------|------------------------|
                            ***
    1  &  2  &  3  &  4  &   1  &  2  &  3  &  4  &      ***played in third verse
eb|------------------------|------------------------|    (------------------------)
Bb|-3-----3-----3-----3----|-5-----5-----5-----5----|    (-5-----5-----5-----5----)
Gb|----4-----4-----4-----4-|----4-----4-----2-----2-|    (----4-----4-----3-----3-)
Db|-3-----------2----------|------------------------|    (------------------------)
Ab|------------------------|-3-----------3----------|    (-3-----------3----------)
Eb|------------------------|------------------------|    (------------------------)

    1  &  2  &  3  &  4  &   1  &  2  &  3  &  4  &
eb|------------------------|------------------------|
Bb|-5-----5-----5-----5----|-0-----0-----0-----0----|
Gb|----4-----4-----4-----4-|----0-----0-----0-----0-|
Db|------------------------|-------0-----------0----|
Ab|-4-----------3----------|------------------------|
Eb|------------------------|-3-----------3----------|

    1  &  2  &  3  &  4  &   1  &  2  &  3  &  4  &
eb|------------------------|------------------------|
Bb|-5-----5-----5-----5----|-------0-----2-----3----|
Gb|----4-----4-----4-----4-|-2----------------------|
Db|------------------------|----0-----0-----0-----0-|
Ab|-4-----------3----------|------------------------|
Eb|------------------------|-3-----------3----------|

    1  &  2  &  3  &  4  &   1  &  2  &  3  &  4  &
eb|------------------------|------------------------|
Bb|-1-----1-----1-----0----|------------------------|
Gb|----2-----0-----0-----0-|-7-----9-----7-----5----|
Db|-------0----------------|----0-----0-----0-----0-|
Ab|-------------3----------|-7-----8-----7-----5----|
Eb|-2-----------------3----|------------------------|

    1  &  2  &  3  &  4  &   1  &  2  &  3  &  4  &
eb|------------------------|------------------------|
Bb|-------------8-----7----|-3-----3-----3-----1----|
Gb|-8-----8--------0-----0-|----0-----0-----0-----2-|
Db|----8-----8s-------9----|-------0----------------|
Ab|------------------------|------------------------|
Eb|-8-----------9----------|-3-----------3-----2----|

CHORUS 2:

    1  &  2  &  3  &  4  &   1  &  2  &  3  &  4  &
eb|------------------------|------------------------|
Bb|-0-----0-----0-----1----|-0-----0-----0-----1----|
Gb|----0-----0-----0-----0-|----0-----0-----0-----0-|
Db|-------0----------------|-------0-----0----------|
Ab|------------------------|------------------------|
Eb|-3-----------3-----2----|-3-----------------2----|

    1  &  2  &  3  &  4  &   1  &  2  &  3  &  4  &
eb|------------------------|------------------------|
Bb|-0-----0-----0-----0----|-0-----0-----0-----0----|
Gb|----0-----0--0--0-----0-|----0-----0-----0-----0-|
Db|-------0--------0-------|----------0-------------|
Ab|------------------------|------------------------|
Eb|-3----------------------|------------------------|

CHORUS 3:

    1  &  2  &  3  &  4  &   1  &  2  &  3  &  4  &  5  &
eb|------------------------|------------------------------|
Bb|----0--------0-----1----|-------0--------0--------1--1-|
Gb|-------0--------0--0----|----0-----0--------0-----0----|
Db|----------0--------2---2|----------------------0--2----|
Ab|-------------------3---3|-------------------------3----|
Eb|-3----------------------|-3-----------3----------------|

    1 e & a 2 e & a 3 e & a 4 e & a 5 e & a   1 e & a 2 e & a 3 e & a 4 e & a 
eb|-----------------------------------------|-------------------------------0-|
Bb|-------0-------0-------0-------0-1-----1-|-------0-------0-------0-----1---|
Gb|---------0-------0-------0-------0-------|---------0-------0-----------2---|
Db|-----0-----------0-------0-------2-------|-----0-------0-------0-----------|
Ab|---------------------------------3-------|---------------------------------|
Eb|-3---------------3-----------------------|-3-----------------------2-------|

    1 e & a 2 e & a 3 e & a 4 e & a   1 e & a 2 e & a 3 e & a 4 e & a 5 e & a
eb|---------------------------------|-----------------------------------------|
Bb|-------0-------0-------0-1-----1-|-------0-----0---0-----0-------0-1-----1-|
Gb|---------0-------0-------0-------|-----0---------0-------0-0---0---0-------|
Db|-----0-------0-------0---2-------|---------0-----------0-----------2-------|
Ab|-------------------------3-------|---------------------------------3---3---|
Eb|-3-------------------------------|-3---------------------------------------|

    1 e & a 2 e & a 3 e & a 4 e & a 5 e & a
eb|-----------------------------------------||
Bb|-0-----0-1-----1-0-----------------------||
Gb|-0-----0-0-----0-0-----0-------0---0-----||
Db|-----0-------2---------------------------||
Ab|---------3-------------------------------||
Eb|-3---------------3---3---3---3---3-------||