#----------------------------PLEASE NOTE-----------------------------#
# This represents the author's own work and interpretation of the    #
# song. To be used only for private study, scholarship, or research. #
#--------------------------------------------------------------------#

Artist: Dirty Projectors
  Song: Naked We Made It

[http://www.indieguitartabs.com/bands/dirty_projectors/naked_we_made_it.html]

Tabbed by: Kris Ellestad

| s slide

Standard tuning
Capo on 1st fret
In 12/8 time

Song structure:

INTRO/VERSE 1/VERSE 2/CHORUS 1/INTERLUDE/CHORUS 2/VERSE 3/VERSE 4/FINAL CHORUS


INTRO:

   4 & a   1 & a 2 & a 3 & a 4 & a   1 & a 2 & a 3 & a 4 & a
e|-------|-------------------------|-------------------------|
B|-------|-------------------------|-------------------3---1-|
G|-2---2-|-2-----0-----2-----2---2-|-2-----3-----2-----2---2-|
D|-4---2-|-0-----0-----0-----4---2-|-0-----0-----0-----0-----|
A|---0---|---0-0---------0-0---0---|---0-0---------0-0---3-0-|
E|-------|---------3-3-------------|---------3-3-------------|

   1 & a 2 & a 3 & a 4 & a   1 & a 2 & a 3 & a 4 & a
e|-------------------------|-------------------------|
B|-------------------------|-4-----4-----4-----------|
G|-3-----2-----3-----5-----|-3-----3-----3-----2---2-|
D|-0-----0-----0-----0-----|-1-----1-----1-----4---2-|
A|-------------------------|---------------------0---|
E|---3-3---2-2---3-3---5-5-|---3-3---3-3---3-3-------|
                                              "W-e-e

VERSE 1/3:

   1 & a 2 & a 3 & a 4 & a   1 & a 2 & a 3 & a 4 & a
e|-------------------------|-------------------------|
B|-------------------------|-------------------3---1-|
G|-2-----0-----2-----2---2-|-2-----3-----2-----2---2-|
D|-0-----0-----0-----4---2-|-0-----0-----0-----0-----|
A|---0-0---------0-0---0---|---0-0---------0-0---3-0-|
E|---------3-3-------------|---------3-3-------------|
   laid  on the roof..."

   1 & a 2 & a 3 & a 4 & a   1 & a 2 & a 3 & a 4 & a   1 & a 2 & a 3 & a 4 & a
e|-------------------------|-------------------------|-------------------------|
B|-------------------------|-4-----------------------|-------------------------|
G|-3-----2-----3-----5-----|-3-----------------------|-------------------2---2-|
D|-0-----0-----0-----0-----|-1---1-------------------|-------------------4---2-|
A|-------------------------|-------------------------|---------------------0---|
E|---3-3---2-2---3-3---5-5-|---3(3)3---3-3-3-3-3-3-3-|-3-3-3-3-3-3-3-3-3-------|


VERSE 2/4:

   1 & a 2 & a 3 & a 4 & a   1 & a 2 & a 3 & a 4 & a
e|-------------------------|-------------------------|
B|-------------------------|-------------------------|
G|-2-----0-----2-----2---2-|-2-----3-----2sssss7---5-|
D|-0-----0-----0-----4---2-|-0-----0-----0-----7---7-|
A|---0-0---------0-0---0---|---0-0---------0-0-5-----|
E|---------3-3-------------|---------3-3---------8-5-|

   1 & a 2 & a 3 & a 4 & a   1 & a 2 & a 3 & a 4 & a
e|-------------------------|-------------------------|
B|-------------------------|-------------------------|
G|-3-----2-----3-----5-----|-7-----7-----7-----7-----|
D|-0-----0-----0-----0-----|-6-----6-----5-----5-----|
A|-------------------------|-------------------------|
E|---3-3---2-2---3-3---5-5-|---7-7---7-7---7-7---7-7-|


CHORUS 1/2:

   1 & a 2 & a 3 & a 4 & a   1 & a 2 & a 3 & a 4 & a
e|-------------------------|-------------------------|
B|-------------------------|-------------------------|
G|-7-----7-----7-----7-----|-7-----7-----7-----7-----|
D|-4-----5-----6-----6-----|-6-----6-----5-----5-----|
A|-------------------------|-------------------------|
E|---5-5---5-5---7-7---7-7-|---6-6---6-6---6-6---6-6-|
                        "and na - ked - - - - - - ..."      

   1 & a 2 & a 3 & a 4 & a   1 & a 2 & a 3 & a 4 & a
e|-------------------------|-------------------------|
B|-------------------------|-------------------------|
G|-7-----7-----7-----7-----|-7-----7-----7-----7-----|
D|-4-----5-----6-----6-----|-5-----4-----5-----4-----|
A|-------------------------|-------------------------|
E|---5-5---5-5---6-6---6-6-|---6-6---5-5---6-6---5-5-|

   1 & a 2 & a 3 & a 4 & a   1 & a 2 & a 3 & a 4 & a
e|-------------------------|-------------------------|
B|-------------------------|-------------------------|
G|-7-----7-----7-----7-----|-7-----7-----7-----7-----|
D|-5-----4-----5-----4-----|-5-----4-----5-----4-----|
A|-------------------------|-------------------------|
E|---6-6---5-5---6-6---5-5-|---6-6---5-5---6-6---5-5-|

   1 & a 2 & a 3 & a 4 & a   1 & a 2 & a 3 & a 4 & a
e|-------------------------|-------------------------|
B|-------------------------|-------------------------|
G|-7-----7-----7-----7-----|-7-----7-----7-----2---2-|
D|-4-----4-----4-----4-----|-4-----4-----4-----4---2-|
A|-------------------------|---------------------0---|
E|---5-5---5-5---5-5---5-5-|---5-5---5-5---5-5-------|


INTERLUDE:

   1 & a 2 & a 3 & a 4 & a   1 & a 2 & a 3 & a 4 & a
e|-------------------------|-------------------------|
B|-------------------------|-------------------------|
G|-2-----------------------|-------------------------|
D|-0-----------0-----------|-0-----------0-----------|
A|-------------------------|-------------------------|
E|-------3-----------------|-------3-----------------|

   1 & a 2 & a 3 & a 4 & a   1 & a 2 & a 3 & a 4 & a   1 & a 2 & a 3 & a 4 & a
e|-------------------------|-------------------------|-------------------------|
B|-------------------------|-------------------------|-------------------------|
G|-------------------------|-------------------------|-------------------------|
D|-------------------------|-1---------1-1-----------|-------------------------|
A|-------0---0-1---1-3---3-|-------------------------|-------------------------|
E|-3---3-------------------|-------------------------|-------------------------|

   1 & a 2 & a 3 & a 4 & a   1 & a 2 & a 3 & a 4 & a
e|-------------------------|-------------------------|
B|-------------------------|-------------------------|
G|-2-----0-----2-----2---2-|-2-----3-----2sssss7---5-|
D|-0-----0-----0-----4---2-|-0-----0-----0-----7---7-|
A|---0-0---------0-0---0---|---0-0---------0-0-5-----|
E|---------3-3-------------|---------3-3---------8-5-|

   1 & a 2 & a 3 & a 4 & a   1 & a 2 & a 3 & a 4 & a
e|-------------------------|-------------------------|
B|-------------------------|-------------------------|
G|-3-----2-----3-----5-----|-7-----7-----7-----7-----|
D|-0-----0-----0-----0-----|-6-----6-----5-----5-----|
A|-------------------------|-------------------------|
E|---3-3---2-2---3-3---5-5-|---7-7---7-7---7-7---7-7-|


FINAL CHORUS:

   1 & a 2 & a 3 & a 4 & a   1 & a 2 & a 3 & a 4 & a
e|-------------------------|-------------------------|
B|-------------------------|-------------------------|
G|-7-----7-----7-----7-----|-7-----7-----7-----7-----|
D|-4-----5-----6-----6-----|-6-----6-----5-----5-----|
A|-------------------------|-------------------------|
E|---5-5---5-5---7-7---7-7-|---6-6---6-6---6-6---6-6-|

   1 & a 2 & a 3 & a 4 & a   1 & a 2 & a 3 & a 4 & a
e|-------------------------|-------------------------|
B|-------------------------|-------------------------|
G|-7-----7-----7-----7-----|-7-----7-----7-----7-----|
D|-4-----5-----6-----6-----|-5-----4-----5-----4-----|
A|-------------------------|-------------------------|
E|---5-5---5-5---6-6---6-6-|---6-6---5-5---6-6---5-5-|

   1 & a 2 & a 3 & a 4 & a   1 & a 2 & a 3 & a 4 & a
e|-------------------------|-------------------------|
B|-------------------------|-------------------------|
G|-7-----7-----7-----7-----|-7-----7-----7-----7-----|
D|-5-----4-----5-----4-----|-5-----4-----5-----4-----|
A|-------------------------|-------------------------|
E|---6-6---5-5---6-6---5-5-|---6-6---5-5---6-6---5-5-|

   1 & a 2 & a 3 & a 4 & a   1 & a 2 & a 3 & a 4 & a
e|-------------------------|-------------------------|
B|-------------------------|-------------------------|
G|-7-----7-----7-7-7-7-7-7-|-7-7-7-7-7-7-7-7-7-7-7-7-|
D|-5-----4-----5-5-5-4-4-4-|-5-5-5-4-4-4-5-5-5-4-4-4-|
A|------------(5-5-5-5-5-5)|(5-5-5-5-5-5-5-5-5-5-5-5)|
E|-6---6-5---5-6---6-5---5-|-6---6-5---5-6---6-5---5-|

   1 & a 2 & a 3 & a 4 & a   1 & a 2 & a 3 & a 4 & a
e|-------------------------|-------------------------|
B|-------------------------|-------------------------|
G|-7-7-7-7-7-7-7-7-7-7-7-7-|-7-7-7-7-7-7-7-7-7-7-7-7-|
D|-5-5-5-4-4-5-5-5-5-4-4-4-|-5-5-5-4-4-4-4-4-4-4-4-4-|
A|(5-5-5-5-5-5-5-5-5-5-5-5)|(5-5-5-5-5-5-5-5-5-5-5-5)|
E|-6---6-5---5-6---6-5---5-|-6---6-5---5-5---5-5---5-|

   1 & a 2 & a 3 & a 4 & a   1 & a 2 & a 3 & a 4 & a
e|-------------------------|-------------------------|
B|-------------------------|-------------------------|
G|-7-7-7-7-7-7-7-7-7-7-7-7-|-7-7-7-7-7-7-7-7-7-7-7-7-|
D|-4-4-4-4-4-4-4-4-4-4-4-4-|-4-4-4-4-4-4-4-4-4-4-4-4-|
A|(5-5-5-5-5-5-5-5-5-5-5-5)|(5-5-5-5-5-5-5-5-5-5-5-5)|
E|-5---5-5---5-5---5-5---5-|-5---5-5---5-5---5-5---5-|

   1 & a 2 & a 3 & a 4 & a
e|-------------------------||
B|-------------------------||
G|-7-7-7-7-7-7-7-7-7-------||
D|-4-4-4-4-4-4-4-4-4-------||
A|(5-5-5-5-5-5-5-5-5-------||
E|-5---5-5---5-5---5-5-----||



we laid on the roof, looked at stars 'til two,
and we talked about the news.
wasn't too much news, so we went down soon to the darkness of my room,
and naked we made it us too.
and i loved it. i loved it. i loved it. i loved it.
and naked we made it us too.
and i loved it. i loved it. i loved it. i loved it.
now the moon's waning, and the summer's fade. and (?)
oblique, oblique, (?).
let it be the time that we were naked made it us too.
and i loved it. i loved it. i loved it. i loved it. i loved it. i loved it. i loved it. i loved it. she loved it. i think she loved it.