Knotty Pine Tab

More Dirty Projectors Tabs

Artist: Dirty Projectors
  Song: Knotty Pine

Tabbed by: Beth Hansen (Blog at onlyof09.blogspot.com)

[intro / verse]

   D         C#m Bm   A
E--5-5-5-5-5-5-4-2----0---0-0-0---
B--7-7-7-7-7-7-5-3----2---2-2-2---
G--7-7-7-7-7-7-6-4----2---2-2-2---
D--7-7-7-7-7-7-6-4----2---2-2-2---
A--5-5-5-5-5-5-4-2----0---0-0-0---
E--5-5-5-5-5-5-4-2----0---0-0-0---

    C#m   Bm          C#m    A
E|--4-4---2---2-2-2-2s4-4-4--0---0--0--0--
B|--5-5---4---4-4-4-4s5-5-5--2---2--2--2--
G|--6-6---3---3-3-3-3s6-6-6--2---2--2--2--   x4
D|--6-6---4---4-4-4-4s6-6-6--2---2--2--2--
A|--4-4---2---2-2-2-2s4-4-4--0---0--0--0--
E|--4-4---2---2-2-2-2s4-4-4--0---0--0--0--

at the end of the verse before the chorus add

   A Asus4
E|--------------0--
B|--2-3-2-3-2-3-2--
G|--2-2-2-2-2-2-2--
D|--2-2-2-2-2-2-2--
A|--------------0--
E|--------------0--

[chorus]
    D                A                     Bm
E|--2-2-2-2-2-2-2-2--0-0-0-0-0-0-0-0-     -2-2-2-2-2-2-2-2-2-2-
B|--2-2-2-2-2-2-2-2--2-2-2-2-2-2-2-2-     -3-3-3-3-3-3-3-3-3-3-
G|--2-2-2-2-2-2-2-2--2-2-2-2-2-2-2-2-  x4 -4-4-4-4-4-4-4-4-4-4- etc
D|--0-0-0-0-0-0-0-0--2-2-2-2-2-2-2-2-     -4-4-4-4-4-4-4-4-4-4-
A|-------------------0-0-0-0-0-0-0-0-     -2-2-2-2-2-2-2-2-2-2-
E|-----------------------------------     -2-2-2-2-2-2-2-2-2-2-

repeat the whole song to this point.

repeat chorus over solo about halfway through the solo (around 32 beats in)

{verse]
Here is the sound that photographs make
When I see them
When I hear them
I see regions of sharp precision
Over abundance
Over indulgence

[chorus]
Tied together with rope and twine
Stuck together with paste and glue
Two old planks of knotty pine
A couple of nails that poke right through.

#----------------------------PLEASE NOTE-----------------------------#
# This represents the author's own work and interpretation of the    #
# song. To be used only for private study, scholarship, or research. #
#--------------------------------------------------------------------#

blog comments powered by Disqus