Dance for You Tab

More Dirty Projectors Tabs

Artist: Dirty Projectors
 Album: Swing Lo Magellan
  Song: Dance for You

Tabbed by: Will Fulton

This is the intro played in live performance.
A stripped down variation is played on the recorded version intro and during the bridge.

Capo - 2nd Fret

Dance for You intro (Live)

E||-----------5------------2-|-------------5------7----|
B||-----------5----3---------|-------3-----5------7----|
G||---------6------2---------|---------2---6------7----|
D||--------------------0-----|-------------------------|
A||--------------------------|-------------------------|
E||--5-----------------------|-------------------------|



----2-------2p-0-----------|--5------2-------0--------|
----3------------3---------|--7------3-------0------0-|
----2--------------2-------|--7---------4----2------1-|
--------0--------------0---|-----------------2------2-|
---------------------------|------------------------2-|
---------------------------|------------------------0-|



----------------------------|--------------7--------||
--------------------------7-|------(7)/9---9--------||
-------1---------------7----|--7---(7)/9---9--------||
---------2-----------7------|------(7)/9------------||
------------2---------------|-----------------------||
--------------2s-5----------|-----------------------||


#----------------------------PLEASE NOTE-----------------------------#
# This represents the author's own work and interpretation of the    #
# song. To be used only for private study, scholarship, or research. #
#--------------------------------------------------------------------#

blog comments powered by Disqus