Todo Los Dolores Tab

More Devendra Banhart Tabs

Artist: Devendra Banhart
 Album: Rejoicing in the Hands
  Song: Todo Los Dolores



Tab author: colormeenthused@yahoo.com

e---------
B---1---1-
G---0---0-
D-----2---
A-3-------
E---------

e-----1-0-------------------
B-1-3-----3-1-0-3-1---1---1-
G---------------------0---0-
D-----------------------2--- x2
A-3-3-3-3-3-3-3-3-3-3-------
E---------------------------

e---------------------------
B---------------------------
G-0-0-0-0-0-0-2-0-----------
D-----------------2---------
A-------------------3-3-3-3-
E---------------------------

e-------3---3---3-
B-------3---3---3-
G-0-2-0-0---0---0-
D-------0---0---0-
A-------2---2---2-
E-------3-3-3-3-3-

e-------0-
B-------1-
G-0-2-0-0-
D-------2-
A-------3-
E-------x-

e-------3----------------
B-------3----------1---1-
G-0-2-0-0--0-2-0---0---0-
D-------0------------2---
A-------2--------3-------
E-------3----------------

ending:

e---
B-8-
G-9- fool around with something like this
D-7-
A-8-
E---

e-----------------------0-
B-8--6-5-3-1-5/8--5-3-1-1-
G-----------------------0-
D-----------------------2-
A-10-8-7-5-3-7/10-7-5-3-3-
E-----------------------x-

Todos los Dolores ya se van
Y el grafitti dice Peter Pan
Y el zoologico de arcoiris
Arcoirá, arcoirá

En La mañana pienso en mi primo
Y todo lo español que desafino
Que dice quando el sol sonrie
Sonrreirá, sonrreirá

Con tu cara de camello
Toma un bebé tan bello
Cada casa casa tiene llave
O no se abre, o no se abre

#----------------------------PLEASE NOTE-----------------------------#
# This represents the author's own work and interpretation of the    #
# song. To be used only for private study, scholarship, or research. #
#--------------------------------------------------------------------#

blog comments powered by Disqus