Rejoicing In The Hands Tab

More Devendra Banhart Tabs

Artist: Devendra Banhart
 Album: Rejoicing in the Hands
  Song: Rejoicing In The Hands



Tab author: colormeenthused@yahoo.com

e----------------------
B-------7--------------
G-----7---9p7----------
D-7h9---------9/12-9-7-
A----------------------
E----------------------

e-----------------
B-------7---------
G-----7---9p7-----
D-7h9---------9-7-
A-----------------
E-----------------

e----------------------
B-------7--------------
G-----7---9p7----------
D-7h9---------9/12-9-7-
A----------------------
E----------------------

e------------------
B-------7----------
G-----7---9p7------
D-7h9---------9/12-
A------------------
E------------------


In the dark we are without her empress light
In the dark we are without a light
Half asleep we're calmly waiting through her night
Half asleep we wait 'til she arrives

Clouds of birds are governing her dark blue sky
Clouds of birds are governing her sky
A rush of wind is gently playing with their wings
And yellow stones are standing on her eyes

All rejoice we are in her hands
When in her hands all rejoice
Owl eyes her sun will rise and light the land
All rejoice we are in her hands

#----------------------------PLEASE NOTE-----------------------------#
# This represents the author's own work and interpretation of the    #
# song. To be used only for private study, scholarship, or research. #
#--------------------------------------------------------------------#

blog comments powered by Disqus