This Beard is for Siobhan Tab

More Devendra Banhart Tabs

Artist: Devendra Banhart
 Album: Rejoicing in the Hands
  Song: This Beard is for Siobhan



Tab author: colormeenthused@yahoo.com

A1:   577655
G#7?: 464574
C#m:  x46654
F#:   244322
Bm:   x24432
E:    022100
A2:   x02220


intro/verse:

------------5-------------4--------------------4--------
--------------5---------7---7-------5-4h55p4p2---5------
----------6-----6-----5-------5-------------------------
--------7------------------------------------------6-5-4
----------------------------------4-------4-------------
5-7-5-5-----5-----5-4-----4-----4----------------------



------2-------------2---------------0------------------------------------0--
----2---2-----2h3-0---3--2h3-0--------0---------------2--------------------0
-------------------------------2-1------------------2---2----1h2---1--------
---4------4------------------------2--------------2-------2------4---2------
------------2-----2------------2-----------0h2---0----0----------------2----
-2--------------------------------------------4--------------0-----------0--



The daughter of a man was a mammal
She bore the mark of fire and of flame
Though they’re both the same
Born unto the age of the golden
Oh, that golden age of endless loss and endless gain
And, because my lips have split
All the little children
They all hide in front, in the middle, and in the behind
Now, because my nose has froze
But I can keep on smelling
I could smell my little day away
I could smell my whole day away
Da-da-da-da

Now, because my teeth don’t bite
I can take ‘em out dancing
I could take my little teeth out and show them a real good time
A real good time, a good time, a real good time
good time a good time... (repeat until end)

end on A1

#----------------------------PLEASE NOTE-----------------------------#
# This represents the author's own work and interpretation of the    #
# song. To be used only for private study, scholarship, or research. #
#--------------------------------------------------------------------#

blog comments powered by Disqus