Dogs That Make Up The Dark Tab

More Devendra Banhart Tabs

Artist: Devendra Banhart
 Album: Rejoicing in the Hands
  Song: Dogs That Make Up The Dark



Tab author: colormeenthused@yahoo.com

e-7-------------7-7-7---------
B---8-8-----7---------8-8-8---
G-------9-9---9-------------9-
D---8-------------------------
A-7---7-----------------------
E-----------------------------

e--7-7-7-7-10-7-5/7-7-7-7--7-7-7-7-10-7-12-
B------------------------------------------
G------------------------------------------
D------------------------------------------
A--7-7-7-7-10-7-5/7-7-7-7--7-7-7-7-10-7-12-
E-0----------------------------------------

e--7-7-7-7-10-7-5/7-7-7-7-3-3-2-3-0
B----------------------------------
G----------------------------------
D----------------------------------
A--7-7-7-7-10-7-5/7-7-7-7-3-3-2-0h2
E-0--------------------------------

Dogs they make up the dark surrounding
Mountains they move towards the sea
Lie their shine from your wound is blinding
Mountains still move towards the sea

#----------------------------PLEASE NOTE-----------------------------#
# This represents the author's own work and interpretation of the    #
# song. To be used only for private study, scholarship, or research. #
#--------------------------------------------------------------------#

blog comments powered by Disqus