#----------------------------PLEASE NOTE-----------------------------#
# This represents the author's own work and interpretation of the    #
# song. To be used only for private study, scholarship, or research. #
#--------------------------------------------------------------------#

Artist: Destroyer
 Album: Destroyer's Rubies
  Song: Rubies

[http://www.indieguitartabs.com/bands/destroyer/rubies.html]

Tabbed by: ttiot8

Intro
-0-0-0-2------
-1-0-1-3------
-2-0-0-2------
-3-0-2-0------
-0-2-3--------
---3----------

Dueling cyclones jackknife. They got eyes for your wife
and the blood that lives in her heart.

Verses (you play the chords more than one time, but it's kind of
annoying to write that out)

-0--0-------
-1--3-------
-2--4-------
-3--5-------
-0--0-------
------------

Guitar Break/Riff thing
---3-12-0------ 
-5-5-13-13-----
-5-3-14-14-----
-5-5-14-15-----
-3-3-----------
-3-------------

(if you're playing it on an acoustic guitar this sounds ok too)
-12---
-10---
-10---
-10---
------
------

(or you could just play C C7 Am F)
-----------------------
----568---56565--------  (--5~--) (going into the next verse)
-57-----57-----75h7p5--
---------------------5-
-----------------------
-----------------------
(listen to the song for the timing)

Next guitar riffy thing

(You play the first guitar riffy thing again before doing this part)

(repeat this part a few times)

e-15-12--15-13-12--12-13-12---------------
b----------------13-------------12-13-12--
g--------------------------12h14----------
d-----------------------------------------
a-----------------------------------------
e-----------------------------------------

e-15-12-13-12--12--12--------------
b------------13--13--13-12h13p12/--
g----------------------------------
d----------------------------------
a----------------------------------
e----------------------------------

Outro

e-15-12-13-12-13-12--------
b--------------------------
g--------------------------
d--------------------------
a--------------------------
e--------------------------

and then the regular second guitar riffy thing.

Please feel free to tell me I'm wrong on this.