Won't Want for Love Tab

More The Decemberists Tabs

Artist: The Decemberists
 Album: The Hazards Of Love
  Song: Won't Want for Love

Tabbed by: marcov

Tuning: DADGBE
Chords: D5   00xxxx
        F5   33xxxx
        G5   55xxxx
        F    x03211
        G    x20033
        FM7  303210
        Dsus 000230


INTRO (Rhythm Guitar)

e|------------------------------------------------------------|
B|------------------------------------------------------------|
G|------------------------------------------------------------|
D|-------------------0---------------------------0--3p0-------|
A|----0----0----0-------3p0-------0----0----0------------3----|
D|----0----0----0------------3----0----0----0-----------------|


INTRO / FILL (Lead Guitar)

e|----5--7----7--8----8--10----10--12--10--8------------------|
B|------------------------------------------------------------|
G|----7--7----7--7----7--7-----7---9---7---7------------------|
D|------------------------------------------------------------|
A|------------------------------------------------------------|
D|------------------------------------------------------------|


VERSE

[D5]           [D5]
Gentle leaves, gentle leaves
[F5]           [G5]
Please array a path for me
    [F5]              [G5]             [D5]
The woods are growing thick and fast around

[D5]       [D5]
Columbine, columbine,
[F5]              [G5]
Please alert this love of mine
[F5]             [G5]            [D5]
Let him know his Margaret comes along


CHORUS

    [F]      [G]        [F]     [G]
And all this stirring inside my belly
      [F]      [G]       [D5]
Won't quell my want for love
    [F]   [G]        [F]      [G]
And I may swoon from all this swelling
    [F]     [G]      [D5]
But I won't want for love


VERSE

Mistle thrush, mistle thrush
Lay me down in the underbrush
My naked feet grow weary with the dusk

Willow boughs, willow boughs
Make a bed to lay me down
Let your branches bow to cradle me


BRIDGE

[FM7]          [FM7]
Oh my own true love!
               [Dsus]
Oh my own true love!

[FM7]           [FM7]
Can you hear me love?
                [Dsus]
Can you hear me love?

#----------------------------PLEASE NOTE-----------------------------#
# This represents the author's own work and interpretation of the    #
# song. To be used only for private study, scholarship, or research. #
#--------------------------------------------------------------------#

blog comments powered by Disqus