#----------------------------PLEASE NOTE-----------------------------#
# This represents the author's own work and interpretation of the    #
# song. To be used only for private study, scholarship, or research. #
#--------------------------------------------------------------------#

Artist: The Decemberists
 Album: The Hazards Of Love
  Song: Isn't it a Lovely Night?

[http://www.indieguitartabs.com/bands/decemberists/isnt_it_a_lovely_night.html]

Tabbed by: marcov

CHORDS USED
G    32000x
Gdim 34000x
G5   35000x
D    xx0232
D7   xx0212
Em   022000

STANDARD TUNING
3/4 TIME

INTRO [G] [Gdim] [G5] [Gdim] x2

INTRO/VERSE
                         [G]          [G]
e|-----------------------------------------------
B|-----------------------------------------------
G|--------------------0--4--------0---4--2-0-----
D|---------0--2--4-------------------------------
A|--2--4-----------------------------------------
E|-----------------------------------------------
    Is-n't it a  love-ly night? / And so a-live
 And here we made a bed of boughs / and thist-le down


         [G]               [G]                    [G]  [Gdim]  [G]
  ------------------------------------------------------------------|
  ------------------------------------------------------------------|
  -------2--0--------------0----------------------------------------|
  --4----------4-------2------4----2--0--------0--------------------|
  ------------------------------------------4-----2-----------------|
  ------------------------------------------------------------------|
    with fi-re-flies / pro-vi-ding us their ho-ly light
    that we had found / to lay upon the dew-y ground

CHORUS
                             [D]   [D7]               [Em]
e|----------------------------------------------------------
B|----------------------------------------1-----------------
G|------------------------0--2---------------4----2---------
D|-------------0--2--4-------------0--0---------------5/2---
A|--2---2--4------------------------------------------------
E|----------------------------------------------------------
    And is-n't it a  love-ly way / we got in from our play


    [A]         [G]   [A]             [G]  [Gdim]  [G]
e|-------------------------------------------------------|
B|-------------------------------------------------------|
G|--2--0------0----------2-----0-------0-----------------|
D|---------2----------2-------------2-----0--------------|
A|-------------------------------------------------------|
E|-------------------------------------------------------|
    Is-n't it babe? / A  sweet litt-le ba-by

Wasn't it a lovely breeze
That swept the leaves of arbor eaves
And bent to brush our blushing knees?

And here we died our little deaths
And we were left to catch our breaths
So swiftly lifting from our chests

And isn't it a lovely way
we got in from our play
Isn't it babe
A sweet little baby