#----------------------------PLEASE NOTE-----------------------------#
# This represents the author's own work and interpretation of the    #
# song. To be used only for private study, scholarship, or research. #
#--------------------------------------------------------------------#

Artist: The Decemberists
 Album: The Tain
  Song: The Tain Part I

[http://www.indieguitartabs.com/bands/decemberists/01_part1.html]

Tabbed by: selanator and steve goldberg from decemberists.com/orate


e|--------------------------------|
B|--------------------------------|
G|--------------------------------|
D|--------------------------------| x4
A|------2-1h2p1----------2-5-6-7--|
E|--0-3----------3-0--3-----------|

e|---------------------------------------------------------|
B|---------------------------------------------------------|
G|---------------------------------------------------------|
D|-----------------------------2-0-2-----------------------|
A|-------2-1h2p1---------0-2----------------2-1h2p1--------|
E|--0-3-----------3p0--3-----0----------0-3----------3--0-3|

crone:  here upon this pillow
made of reed and willow
you're a fickle little twister
are you sweet on your sister?
your fallow won't leave you alone.

and granted for their pleasure 
possesions laid to measure
she's a salty little pisser
with your cock in her kisser
but now she's a will of her own.