An Interlude Tab

More The Decemberists Tabs

Artist: The Decemberists
 Album: The Hazards Of Love
  Song: An Interlude

Tabbed by: justin@indieguitartabs.com

Drop D

e|---------------------------------
B|---------------------------------
G|---------------------------------
D|------4---2------5---4------2-h4- x4
A|----0----------0----------0------
D|--0----------0----------0--------

e|-----------------------------------------------------------------
B|-----------------------------------------------------------------
G|------4-----4----------------------------------------------------
D|----4-----4-------0-----------------0---------------0h4-5--7-----
A|--2-----2------0-------5-5--4h5-5-5---5----5-5--4h5----------5---
D|---------------------5-------------------5-----------------------

#----------------------------PLEASE NOTE-----------------------------#
# This represents the author's own work and interpretation of the    #
# song. To be used only for private study, scholarship, or research. #
#--------------------------------------------------------------------#

blog comments powered by Disqus