The Tain Part VI Tab

More The Decemberists Tabs

Artist: The Decemberists
 Album: The Tain
  Song: The Tain Part VI

Tabbed by: selanator from decemberists.com/orate

(Starts at 17:40)

---------------------------     ------------------------------
---------------------------     ------------------------------
---------------------------     ------------------------------
--------------------------- x2  -------------------------2-0-2 
-----2-1h2p1-------2-5-6-7-     -----2-1h2p1-------0-2--------  
-0-3---------3-0-3---------     -0-3---------3p0-3-----0------  


crone:

and now we've seen your powers
softly stretch the hours
you're a fickle little twister
are you sweet on your sister?
as now you go wandering home.

------------------------------0--
----------------------------0----
--------------------------0------ 
------------------------2--------  Em
----------------------2----------
-0-3-7-6b7b6-3-0----0------------


#----------------------------PLEASE NOTE-----------------------------#
# This represents the author's own work and interpretation of the    #
# song. To be used only for private study, scholarship, or research. #
#--------------------------------------------------------------------#

blog comments powered by Disqus