The Tain Part V Tab

More The Decemberists Tabs

Artist: The Decemberists
 Album: The Tain
  Song: The Tain Part V

Tabbed by: selanator from decemberists.com/orate



(Start at 14:30)

woman: darling dear what have you done?

your clothes are town, your make-up runs.


F#5 - E5 (x8)


daughter: i ran through brambles, blooming thistle

i washed my face in the river when you whistled me on.


F#5 - E5 (x8)


woman: darling dear, what have you done? 

your hands and face are smeared with blood.



F#5 - E5 (x2)



----------------
----------------
----------------
----------------
-----4-3b4b3----
-2-5---------5--



F#5 - E5 (x2)



----------------
----------------
----------------
-------2-3-4----
-----4----------
-2-5------------


daughter: the chaplain came and called me out


to beat and to butcher his mother's sow


F#5 - E5 (x2)


----------------
----------------
----------------
----------------
-----4-3b4b3----
-2-5---------5--


F#5 - E5 (x2)


----------------
----------------
----------------
-------2-3-4----
-----4----------
-2-5------------


woman: but darling dear, they found him dead

this morning on the riverbed.


F#5 - E5 (x2)


-------------------------------------
-------------------------------------
-----------------------------1-2-3---
-----------------------2-3-4---------
-----4-3b4b3---------4---------------
-2-5---------5---2-5-----------------


B - A  (x2)

    B                 A       
but hush now darling, don't you cry.

     B               A
your reward's in the sweet by-and -by.

   B              A
so hush now baby, don't you cry.

     B               A
your reward's in the sweet by-and-by.


----------------
----------------
----------------
----------------
-------5-6-7----
-5-6-7----------



#----------------------------PLEASE NOTE-----------------------------#
# This represents the author's own work and interpretation of the    #
# song. To be used only for private study, scholarship, or research. #
#--------------------------------------------------------------------#

blog comments powered by Disqus