Angel, Won't You Call Me Tab

More The Decemberists Tabs

Artist: The Decemberists
 Album: 5 Songs EP
  Song: Angel, Won't You Call Me




E|--------------2--2------3---3-------3--3--
B|--------------3--3------3---3-------3--3--
G|--------------2--2------0---0-------0--0--  (x2, then w/ lyrics)
D|-----------0--0--0------2---2-------0--0--
A|---0-2-3-------------3--3---3-------2--2--
E|-3-------------------------------3--3--3--

G                D Cadd9 G
Angel, won't you call    me / could I be the only 
Though I am a lost cause / angel, won't you call me

Waiting for a sweet breeze / read it in the tea-leaves 
Saw them crown you May queen / heard you sing the sweetest thing 

G G/A G/B C  Em7        Cadd9        G  Cadd9  G
             But I been so unbridled 
Em7             Cadd9            G
I fled at the face of my rival,   
       D           Dsus4 D     Cadd9           Cm
When I felt his breath, at the back of my neck
                 D    Dsus4  DaddA  DaddB     G
Angel, won't you call

  G  D  Cadd9 G  (x4)
D----/9-7-------------7------/9-7------------
A---------10-9-10--10-------------10-9-7-----
E----------------------------------------10--

D--/7-9-/12-10p9-9h10-9-7------------------------------------
A-------------------------10-9-7----------7-10-9p7-9h10-9----
E--------------------------------10----10-----------------10-

So here I am in corduroys / catch it in your Polaroid 
Thought it was an off night / caught in such a warm light 

So angel, won't you call me / could I be the only 
Though I am a lost cause / angel, won't you call me

Cause I been so unbridled
I fled at the face of my rival 
When I felt his breath, at the back of my neck 
                 D    Dsus4  DaddA  DaddB  DaddC  DaddD  DaddE  DaddF#    
Angel, won't you call... 

G G  Cadd9 G


#----------------------------PLEASE NOTE-----------------------------#
# This represents the author's own work and interpretation of the    #
# song. To be used only for private study, scholarship, or research. #
#--------------------------------------------------------------------#

blog comments powered by Disqus