Sheets Tab

More Damien Jurado Tabs

Artist: Damien Jurado
 Album: Caught in the Trees
  Song: Sheets

Tabbed by: Clark Wolf (oddmenout4@yahoo.com)

Capo 6

Intro:
   (Am)            (C)            (G)              (F)
E|-------------------------------------------------------------------|
B|--------1-------1-------1---------------0-------0-------0-------0--|
G|----2-------2-------0---------0-----0-------0-------2-------2------|
D|------2-------2-------2---0h2---0-----0-------0-------3-------3----|
A|--0-------0-------3------------------------------------------------|
E|----------------------------------3-------3-------1-------1--------|
(repeat, second time hold out F)

Verse 1: (Pick like intro)
   Am                C                    G              F
Is he still coming around like an injured bird needing a nest?
           Am        C         G          F
A place to rest his head in a song you'll regret
          Am             C                     G
Still you take him; Lord knows I don't want to compete
            F                 Am     C         G   F (hold)
But I still sleep in the very sheets he's been in

Verse 2:
Swallow him whole like a pill that makes you choke and stills your soul
You have the nerve to look me in the eyes and lie
Send him back
I'll share the trap that you have me in

Intro

Verse 3:
Is he still coming around like an injured bird needing a nest?
A place to rest his head in a song you'll regret
Still you take him
Lord knows I don't want to compete
But I still sleep in the very sheets he's been in

Verse 4: (Power chords not relative to capo)
Eb                      F#                  C#                    B
Swallow him whole like a pill that makes you choke and stills your soul
             Eb               F#              C#    B
You have the nerve to look me in the eyes and lie
         Eb
Send him back
     F#                  C#          B
I'll share the trap that you have me in

Solo: (not relative to capo)
E----------------------------|
B----------------------------|
G----------------------------|
D----8-----8p6--4-6---6--4---|
A--6-----6-------------------|
E----------------------------|

(then clean over acoustic picking)
E-----6-----------------------|
B--7-----7--6--6/7-4---2-2/4--|
G-----------------------------|
D-----------------------------|
A-----------------------------|
E-----------------------------|
(repeat with variations)

(Still you sleep in the very sheets he's been in)
#----------------------------PLEASE NOTE-----------------------------#
# This represents the author's own work and interpretation of the    #
# song. To be used only for private study, scholarship, or research. #
#--------------------------------------------------------------------#

blog comments powered by Disqus