Go First Tab

More Damien Jurado Tabs

Artist: Damien Jurado
 Album: Caught in the Trees
  Song: Go First

Tabbed by: Clark Wolf (oddmenout4@yahoo.com)

Capo 2

Intro:
Bm A E E x2

Verse 1: (Guitar 2 plays Riff 1*)
Bm          A
Are you all right? 
       E
You're making me nervous with how much you leave me here 
Bm      A
Is it a sign? 
E
I don't feel like ever getting well

Chorus: (Guitar 2 plays Riff 2*)
D           A
Tell me the lie, 
                   E
You're taking your time over and over x2

Verse 2:
My closest friends 
Live on the side of where you now divide
Is it a sign if I don't feel like ever getting well

Chorus x2

Chorus chords x2 (with slight variation of Riff 2)

Solo:

E|----------------------------------------|
B|----------------------------------------|
G|-----2--------------4-0------2--2-/4----| x2
D|--/4---4-0-2-/5--/4-----2-4----------5--|
A|----------------------------------------|
E|----------------------------------------|

E|----------0--|
B|----------0--|
G|--7-6-4---1--| x2
D|----------2--|
A|----------2--|
E|----------0--|

Verse 1

Chorus x4

Solo


*Riff 1
E|-----------------------------------------0---0----0-------0---0-----|
B|-------3---3-----3--------2---2-----2-------------------------------|
G|--4--4---4-----4-----2--2---2-----2----1--1---1----1----1--1---1----|
D|--------------------------------------------------------------------|
A|--------------------------------------------------------------------|
E|--------------------------------------------------------------------|

*Riff 2
E|----------------------------------------------------------|
B|------5------5------2------2------0------0------0------0--|
G|--2-2----2-2----2-2----2-2----1-1----1-1----1-1----1-1----|
D|----------------------------------------------------------|
A|----------------------------------------------------------|
E|----------------------------------------------------------|
#----------------------------PLEASE NOTE-----------------------------#
# This represents the author's own work and interpretation of the    #
# song. To be used only for private study, scholarship, or research. #
#--------------------------------------------------------------------#

blog comments powered by Disqus