Coats of Ice Tab

More Damien Jurado Tabs

Artist: Damien Jurado
 Album: Caught in the Trees
  Song: Coats of Ice

Tabbed by: Clark Wolf (oddmenout4@yahoo.com)

Capo 2

Intro:
C#m E F# A x2

Verse 1:
C#m                E
You'll be happy to know
    F#           A
The situation is worse
    C#m                E
The endless bottles of pills
     F#            A
That never seem to work

(Guitar 2 plays Riff 1*)
C#m             E
Sleeping in his clothes
    F#                A
And still looking his best
C#m                 E
He's so high in the tomb
    F#                 A
You wouldn't know he's dead

Chorus: (Guitar 2 plays Riff 2*)
C#m      E    F#              A
You look like you could use a rest
C#m       E   F#              A
You look like you'd be better dead

Verse 2:
They're making requests
For songs that you never play
And the sanity lost
Is worth the money paid
How does it feel
To be what you sing about
We all came to applaud
But the ghost said you'd long checked out

Chorus x1

Verse 3:
You'll be happy to know
The situation is worse
The endless bottles of pills
That never seem to work
She's keeping receipts
On all that you've done wrong
Your selfish efforts were cheap
And have lasted far too long

Chorus x2


*Riff 1
E--------------------------------------------------------------------|
B---2-2-2-2-2-2-2-2-0-0-0-0-0-0-0-0-2-2-2-2-2-2-2-2-2-2-2-2-2-2-2-2--|
G---1-1-1-1-1-1-1-1-1-1-1-1-1-1-1-1-1-1-1-1-1-1-1-1-1-1-1-1-1-1-1-1--|
D--------------------------------------------------------------------|
A--------------------------------------------------------------------|
E--------------------------------------------------------------------|

*Riff 2
E-------------------------------------------|
B-------------------------------------------|
G--6\4/6------------------------------------| x2
D----------4--2----------------------1/2-1--|
A-----------------2-/4----------------------|
E-------------------------------------------|
 You    look like   you could use a rest
      You look like  you'd be better dead


#----------------------------PLEASE NOTE-----------------------------#
# This represents the author's own work and interpretation of the    #
# song. To be used only for private study, scholarship, or research. #
#--------------------------------------------------------------------#

blog comments powered by Disqus