Your Night To Shine Tab

More Clem Snide Tabs

Artist: Clem Snide
 Album: You Were a Diamond
  Song: Your Night To Shine

Tabbed by: A.Demidh[at]europe.mccann.com

DROP D TUNING - DADGBE

INTRO/OUTRO

|-----------------------
|- ------0----------7---
|--------------7---6----
|---4---7-7---5-5-7-----
|--5-5-6---4s7---0------
|-0---------------------

VERSE

|---------------------------------------------------------------------------
|----------------0--------------------------------7-----7-----7-----7-----s>
|----------------------7-----7-----7-------7------5-----5-----5-----5-----s>
|---4---4---4---7-7---5-5---5-5---5-5--4s5---5---7-7---7-7---7-7---7-7----s>
|--5-5-5-5-5-5s6----------------------------------------------------------s>
|-0---7---0--------3s5----5-----5-------------5s7----7-----7-----7----------


FINAL CHORD

|------5------------
|-----5-------------
|----4--------------
|---x---------------
|--5----------------
|-x-----------------

The trickiest bit is the second half of part 2, just concentrate on eliding
from the 5-7 using your middle finger and the rest will come. The slides are
really important to the flow of the song!
#----------------------------PLEASE NOTE-----------------------------#
# This represents the author's own work and interpretation of the    #
# song. To be used only for private study, scholarship, or research. #
#--------------------------------------------------------------------#

blog comments powered by Disqus