Sanguinary Tab

More Chris Brokaw Tabs

Artist: Chris Brokaw
 Album: Canaris
  Song: Sanguinary

Tabbed by: Alberto Serrano Roig

Tune: g#-b-G-D-G#-D#

g# ---------8-----------8------
b  -------5---5-------5---5----
G  -----7-----------7----------
D  ---6-----------6------------
G# -0-----------0--------------
D# ----------------------------


g# -------0-----------0--------
b  -----2---2-------2---2------
G  ---4-------4---4-------4----
D  -2-----------2--------------
G# ----------------------------
D# ----------------------------


g# ----------------------------
b  -----0----------------------
G  ---3------------------------          
D  -------2-x-x-2-2---4--------
G# ----------------------------
D# -4-------------3-3---3------


g# -----3------3-----3-----3--------
b  ---------------------------------
G  --------3-----3-----3-----3------
D  ---------------------------------
G# -3/5------5-----5-----5-----5----
D# ---------------------------------


g# ---------8-----------8------
b  -------5---5-------5---5----
G  -----7-----------7----------
D  ---6-----------6------------
G# -0-----------0--------------
D# ----------------------------


g# -------0-----------0--------
b  -----2---2-------2---2------
G  ---4-------4---4-------4----
D  -2-----------2--------------
G# ----------------------------
D# ----------------------------


g# ----------------------------
b  -----0----------------------
G  ---3------------------------          
D  -------2-x-x-2-2---4--------
G# ----------------------------
D# -4-------------3-3---3------


g# -----3------3-----3-----3--------
b  ---------------------------------
G  --------3-----3-----3-----3------
D  ---------------------------------
G# -3/5------5-----5-----5-----5----
D# ---------------------------------


g# ---3-3---3-3---3-3---3-3----
b  ----------------------------
G  ---3-3---3-3---3-3---3-3----
D  ----------------------------
G# ----------------------------
D# -3-----3-----3-----3--------


g# ---3-3---3-3---3-3---3-3----
b  ----------------------------
G  ---3-3---3-3---3-3---3-3----
D  -2-----2-----1-----1--------
G# ----------------------------
D# ----------------------------


g# ---3-3---3-3---3-3---3-3----
b  ----------------------------
G  ---3-3---3-3---3-3---3-3----
D  ----------------------------
G# ----------------------------
D# -3-----3-----3-----3--------


g# ---3-3---3-3---3-3---3-3----
b  ----------------------------
G  ---3-3---3-3---3-3---3-3----
D  -2-----2-----1-----1--------
G# ----------------------------
D# ----------------------------


g# ---3-3---3-3---3-3---3-3----
b  ----------------------------
G  ---3-3---3-3---3-3---3-3----
D  ----------------------------
G# ----------------------------
D# -3-----3-----3-----3--------


g# ---3-3---3-3---3-3---3-3----
b  ----------------------------
G  ---3-3---3-3-1-3-3---3-3----
D  -2-----2-----1-----1--------
G# ----------------------------
D# ----------------------------


g# ---3-3---3-3---3-3---3-3----
b  ----------------------------
G  ---3-3---3-3---3-3---3-3----
D  ----------------------------
G# ----------------------------
D# -3-----3-----3-----3--------


g# ---3-3---3-3---3-3---3-3----
b  ----------------------------
G  ---3-3---3-3---3-3---3-3----
D  -2-----2-----1-----1--------
G# ----------------------------
D# ----------------------------


g# ----------------------------
b  -------4-------4---4b-4b----
G  ---0-3---3-0-----3----------
D  -3--------------------------
G# ----------------------------
D# -------------0--------------


g# ----------------------------
b  -------4-------4---4b-4b----
G  ---0-3---3-0-----3----------
D  -3--------------------------
G# ----------------------------
D# -------------0--------------


g# ----------------------------
b  -------4-------4---4b-4b----
G  ---0-3---3-0-----3----------
D  -3--------------------------
G# ----------------------------
D# -------------0--------------


g# ----------------------------
b  -------4-------4---4b-4b----
G  ---0-3---3-0-----3----------
D  -3--------------------------
G# ----------------------------
D# -------------0--------------


g# ---------8-----------10------
b  -------5---5-------5----5----
G  -----7-----------7----------
D  ---6-----------6------------
G# -0-----------0--------------
D# ----------------------------


g# -------0-----------0--------
b  -----2---2-------2---2------
G  ---4-------4---4-------4----
D  -2-----------2--------------
G# ----------------------------
D# ----------------------------


g# ----------------------------
b  -----0----------------------
G  ---3------------------------          
D  -------2-x-x-2-2---4--------
G# ----------------------------
D# -4-------------3-3---3------


g# -----3------3-----3-----3--------
b  ---------------------------------
G  --------3-----3-----3-----3------
D  ---------------------------------
G# -3/5------5-----5-----5-----5----
D# ---------------------------------


g# ---3-3---3-3---3-3---3-3----
b  ----------------------------
G  ---3-3---3-3---3-3---3-3----
D  ----------------------------
G# ----------------------------
D# -3-----3-----3-----3--------


g# ---3-3---3-3---3-3---3-3----
b  ----------------------------
G  ---3-3---3-3---3-3---3-3----
D  -2-----2-----1-----1--------
G# ----------------------------
D# ----------------------------


g# ---3-3---3-3---3-3---3-3----
b  ----------------------------
G  ---3-3---3-3---3-3---3-3----
D  ----------------------------
G# ----------------------------
D# -3-----3-----3-----3--------


g# ---3-3---3-3---3-3---3-3----
b  ----------------------------
G  ---3-3---3-3---3-3---3-3----
D  -2-----2-----1-----1--------
G# ----------------------------
D# ----------------------------


g# ---3-3---3-3---3-3---3-3----
b  ----------------------------
G  ---3-3---3-3---3-3---3-3----
D  ----------------------------
G# ----------------------------
D# -3-----3-----3-----3--------


g# ---3-3---3-3---3-3---3-3----
b  ----------------------------
G  ---3-3---3-3-1-3-3---3-3----
D  -2-----2-----1-----1--------
G# ----------------------------
D# ----------------------------


g# ---3-3---3-3---3-3---3-3----
b  ----------------------------
G  ---3-3---3-3---3-3---3-3----
D  ----------------------------
G# ----------------------------
D# -3-----3-----3-----3--------


g# ---3-3---3-3---3-3---3-3----
b  ----------------------------
G  ---3-3---3-3---3-3---3-3----
D  -2-----2-----1-----1--------
G# ----------------------------
D# ----------------------------


g# -----7-7------7-------------
b  ---7-----x-7--7-7-----------
G  --------------6---6---------
D  ----------------------------
G# --------------5-----5-------
D# -8-----8--------------------


g# -----7-7------7-------------
b  ---7-----x-7--7-7-----------
G  --------------6---6---------
D  ----------------------------
G# --------------5-----5-------
D# -8-----8--------------------


g# -----7-7------7-------------
b  ---7-----x-7--7-7-----------
G  --------------6---6---------
D  ----------------------------
G# --------------5-----5-------
D# -8-----8--------------------


g# -----7-7------7-------------
b  ---7-----x-7--7-------------
G  --------------6-------------
D  ----------------------------
G# --------------5-------------
D# -8-----8--------------------
#----------------------------PLEASE NOTE-----------------------------#
# This represents the author's own work and interpretation of the    #
# song. To be used only for private study, scholarship, or research. #
#--------------------------------------------------------------------#

blog comments powered by Disqus