#----------------------------PLEASE NOTE-----------------------------#
# This represents the author's own work and interpretation of the    #
# song. To be used only for private study, scholarship, or research. #
#--------------------------------------------------------------------#

Artist: Camera Obscura
 Album: Underachievers Please Try Harder
  Song: Lunar Sea

[http://www.indieguitartabs.com/bands/camera_obscura/11_lunar_sea.html]

Tabbed by: "Frank Ferguson" and "cc729" from http://www.bowlie.com/forum/)



Fig 1.1 (guitar 1)
  D                                         G
E|----------0---------|----------0---------|------0------|------0------|
B|------10----10----10|------10----10----10|----3---3---3|----3---3---3|
G|---11----------11---|---11----------11---|--4-------4--|--4-------4--|
D|12------------------|12------------------|5------------|5------------|
A|--------------------|--------------------|-------------|-------------|
E|--------------------|--------------------|-------------|-------------|

Fig 2.1 (guitar 2)
  G
E|5--5--5--5--|5--
B|-3--3--3--3-|---
G|--4--4--4--4|---
D|------------|---
A|------------|---
E|------------|---

Fig 1.2 (guitar 1)
E|----------0---------|----------0---------|
B|------10----10----10|------10----10----10|
G|---11----------11---|---11----------11---|
D|12------------------|12------------------|
A|--------------------|--------------------|
E|--------------------|--------------------|

Fig. 2.2 (guitar 2)
E|------0------|5--5--5--5--|
B|----3---3---3|-3--3--3--3-|
G|--4-------4--|--4--4--4--4|
D|5------------|------------|
A|-------------|------------|
E|-------------|------------|

And that's pretty much it. The rest of the song alternates between Figure 1 and Figure 2 in different combinations.
Sometimes, especially in the chorus, there's the embellishment below:

E|---------10---------|---------10---------|
B|------10----10----10|------10----10----10|
G|---11----------11---|---11----------11---|
D|12------------------|12------------------|
A|--------------------|--------------------|
E|--------------------|--------------------|

E|------0------|5--5--5--5--|
B|----3---3---3|-3--3--3--3-|
G|--4-------4--|--4--4--4--4|
D|5------------|------------|
A|-------------|------------|
E|-------------|------------|

        D
For the Lunar sea see the river moon
        G
And you got it
          D
Match the finest words to the greatest tune
        G
And you bought it
       D
See me cross in style
                           G
Walk the longest mile in a minute
         D
Where do drifters go?
                               G
Wonder if they know there's no limit

       D
At the rainbows end
                                 G
Find a perfect friend say you're sorry
        D
Make me dream at night
                                  G
Break my heart on sight don't you worry
          D
Swept the sounds of love from the skies above
      G
And I knew it
         D 
Swim the seas of blue just to drown in you
      G
And I blew it

[chorus]
    D                                       G
You hear it, the shiver in spine don't come near it
   D                                 G
I love it, you soar and you cry rise above it

       D
Got my lunar sea for you're river moon
       G
If you let it
         D
Match my finest words to your greatest tune
         G
Won't forget it

[chorus]
    D                                       G
You hear it, the shiver in spine don't come near it
  D                                   G
I love it, you soar and you cry rise above it

D                G
Fly by lunar sea lullaby