#----------------------------PLEASE NOTE-----------------------------#
# This represents the author's own work and interpretation of the    #
# song. To be used only for private study, scholarship, or research. #
#--------------------------------------------------------------------#

Artist: Camera Obscura
 Album: Underachievers Please Try Harder
  Song: Teenager

[http://www.indieguitartabs.com/bands/camera_obscura/04_teenager.html]

Tabbed by: "Middle_Fidelity" and "Logan" from http://www.bowlie.com/forum/



Intro:

   F#
e|-----------------------------|---|
B|-----------------------------|---|
G|----------------------------:|---|
D|----------------------------:|---|
A|-4-444-6--6-6-6-8-888-6-8-6--|-4-|
E|-----------------------------|---|


[verse]
         F#                      B
for your birthday she sent you a card
           F#                            B
she didn't sign her name she gave an autograph
          C#                  B
now she's trying to call your bluff
                 F#
is she your true love?


[verse]
   F#                                B
we knew the boy who went from Mod to Ted
          F#                         B
she asked matter of fact had he gone off his head
       C#                 B
he was uncomplaining as a tree
                 F#
not a thing like me


[chorus]
                   B
well, you're not a teenager
         F#
so don't act like one
              B
sure she is a heartbreaker
         F#
does she have one?
              C#          B          
is it down to me, down to me?
               F#
we both rarely speak

[solo]
E :|------------------13-14----------------------------13-14--------|
B :|-16-14-----16-14-------14/16-----16-14-----16-14-------14/16----|
G :|-------15-------------------------------15----------------------|
D :|----------------------------------------------------------------|
A :|----------------------------------------------------------------|
E :|----------------------------------------------------------------|

E :|--------16-14-13---14-13----------------------------------------|
B :|-14-14--------------------14/16-----12-11-12-11--11-------------|
G :|----------------------------------------------------------------|
D :|----------------------------------------------------------------|
A :|----------------------------------------------------------------|
E :|----------------------------------------------------------------|

[verse]
  F#                      B
I went for a stroll after dark
             F#                               B
I thought of you and her while staring at the black
         C#                             B
I didn't have you down for being easily led
                 F#
or the girl well read


[chorus]
             B
you're not a teenager
         F#
so don't act like one
              B
sure she is a heartbreaker
         F#
does she have one?
              C#          B          
is it down to me, down to me?
               F#
we both rarely speak