#----------------------------PLEASE NOTE-----------------------------#
# This represents the author's own work and interpretation of the    #
# song. To be used only for private study, scholarship, or research. #
#--------------------------------------------------------------------#

Artist: Camera Obscura
 Album: Biggest Bluest Hi-Fi
  Song: Houseboat

[http://www.indieguitartabs.com/bands/camera_obscura/03_houseboat.html]

Tabbed by: James ("Middle_Fidelity" from http://www.bowlie.com/forum/)

e|------------------------|------------------------|
B|----2-----------2-------|----2-0---2-----2-0---2-|
G|--2---2---2---2---2---2-|--2-----2-----2-----2---|
D|------------------------|------------------------|
A|2-------2---2-------2---|0-----------0-----------|
E|------------------------|------------------------|

e|------------------------|-----------------------|
B|----2-----------2-------|2-2-2-2-2-2-2-2--------|
G|--2---2---2---2---2---2-|2-2-2-2-2-2-2-2--------|
D|------------------------|2-2-2-2-2-2-2-2--------|
A|2-------2---2-------2---|0-0-0-0-0-0-0-0--------|
E|------------------------|-----------------------|

[verse]
(A)              Bm
Took a trip on a houseboat.
                    A
It was fun- you and me
                        Bm
I know you're really in love with him.
                   A
Are you up to your knees?


[chorus]
                   C#m
Oh I'm always in decline.
                   Bm
Always changing my lines.
                   C#m
Always changing my mind.
                  A      E    A
To be a friend is fine.


[verse]
(A)                     Bm
I won't go sinking this houseboat.
                A
It's so hard to believe
                     Bm
He made you smile so easy,
               A
So make a smile for me.

[chorus]
                   C#m
Will I always be denied?
                       Bm
I thought about it last night.
                   C#m
Could we, baby, honey, try
                     A      E
To put it right this time?

D       E              A
Oh, how I've wanted to change-
D               E                 A      A7
Let you take me home, let you rearrange
         D       E             D                E
To find opportunity you should give yourself to me.
           D        E       A
You should give yourself to me.