#----------------------------PLEASE NOTE-----------------------------#
# This represents the author's own work and interpretation of the    #
# song. To be used only for private study, scholarship, or research. #
#--------------------------------------------------------------------#

Artist: Camera Obscura
 Album: Let's Get Out Of This Country
  Song: Tears For Affairs

[http://www.indieguitartabs.com/bands/camera_obscura/02_tears_for_affairs.html]

Tabbed by: "ozgoelz" and "Logan" from http://www.bowlie.com/forum/



[intro]
Am | D | Am | D | Am | D | G | G

[verse]
G
Shedding tears for affairs
                   Am
I'm a funny little thing
          D                 C
But I can tell you this for nothing
              G
Affairs don't win
G
Can you handle one more dirty secret
          Am
one dirty night
      D                    C
Is it true what they say
                   G
Will it make us go blind


[chorus]
           Am       D
You had to drive
               Am   D
Look me in the eye
        Am          D   G
Whisper don't cry


[verse]
G
I'll take an interest in illustration
               Am
It should be a laugh
         D                 C
But your words are with me still
                    G
They whisper in the grass
G
Shedding tears for affairs
               Am
I'm a stupid little thing
           D                 C
Well I can tell you this for nothing
          G
You won't win


[chorus]
           Am              D
You had to drive (I didn't want to)
               Am              D
Look me in the eye (I found it hard to)
        Am                  D           G
Whisper don't cry (I had to whisper goodbye)


[verse] x2
[solo]
E :|-------------------------------------------|
B :|-12----------12----------13-12-------------|
G :|----14-12-------14-12----------14-14-------|
D :|-------------------------------------------|
A :|-------------------------------------------|
E :|-------------------------------------------|

E :|--------------------------------------------|
B :|-12-----------------------------------------|
G :|----14-12-12h14-----------12-14-12---14^----|
D :|-----------------12--12-14------------------|
A :|--------------------------------------------|
E :|--------------------------------------------|

E :|------------------------------------------------|
B :|-12----------12----------13-12----12-13---------|
G :|----14-12-------14-12----------14---------------|
D :|------------------------------------------------|
A :|------------------------------------------------|
E :|------------------------------------------------|

E :|----------------------------------------------------|
B :|-12-------------------------------------------------|
G :|----14-12-12h14-----------12-14-12---14^-14^-12-----|
D :|-----------------12--12-14--------------------------|
A :|----------------------------------------------------|
E :|----------------------------------------------------|


[chorus]
           Am              D
You had to drive (I didn't want to)
               Am              D
Look me in the eye (I found it hard to)
        Am                  D           G
Whisper don't cry (I had to whisper goodbye)


[chorus]
           Am              D
You had to drive (I didn't want to)
               Am              D
Look me in the eye (I found it hard to)
        Am                  D           G
Whisper don't cry (I had to whisper so I cried)