#----------------------------PLEASE NOTE-----------------------------#
# This represents the author's own work and interpretation of the    #
# song. To be used only for private study, scholarship, or research. #
#--------------------------------------------------------------------#

Artist: Camera Obscura
 Album: Let's Get Out Of This Country
  Song: Lloyd, I'm Ready To Be Heartbroken

[http://www.indieguitartabs.com/bands/camera_obscura/01_lloyd_im_ready_to_be_heartbroken.html]

Tabbed by: James ("Middle_Fidelity" from http://www.bowlie.com/forum/)



Intro: 

play chords over intro: B F# E B

  main riff
e|--------------------------------|
B|-----7--9--9--9--7--7-7---7-----|
G|---8--------------------9---9-8-| x3
D|--------------------------------|
A|--------------------------------|
E|--------------------------------|

e|----------------------------------------------------|
B|--------7--9--9--9--7--7-7------------------------7-|
G|------8---------------------9--8-8-6-6-4-4--6-8-----|
D|----------------------------------------------------|
A|----------------------------------------------------|
E|----------------------------------------------------|

[verse]
B                                                        E
He said "I'll protect you like you are the crown jewels" yet
          B                                              E
Said he's feeling sorrier for me the more I behave badly I can bet

[chorus]
Em                     B
Hey Lloyd I'm ready to be heartbroken
         F#                            E                           B
'Cause I can't see further than my own nose at the moment (at this moment)

[verse]
B                                       E
Jealousy is more than a word now I understand
B                                       E
you can stay a girl by holding a boy's hand

[chorus] x2

[break] uses this minor riff

minor riff | main riff (x3)
main riff (x2) | minor riff | main riff 
main riff (x4)

  minor riff
e|--------------------------------|
B|-----7--8--8--8--7--7-7---7-----|
G|---8--------------------9---9-8-|
D|--------------------------------|
A|--------------------------------|
E|--------------------------------|

[verse]
B                                             E
I've got my life of complication here to sort out
          B                                E
I'll take myself to an east coast city and walk about

[chorus] x3